Oops, an error
Loading. Please wait.

Undisclosed Desires Bass Tab

version 1
version 1
by Muse
62,354 views 21 this week
7 commentsread comments
1 2 3 4 5
x 7
add to favorites
launch autoscroll
font size
0
reset
guitar tuner
Autoscroll
slow
fast
+/-
esc
set tempo
stop
Help us to improve Ultimate-Guitar.com Take our survey!
×
Author
Difficulty
intermediate
Intro:
G:---------------------------------------------------|
D:----------------------5-555----5-555---------------|
A:-3-333----3-333------------------------------------|
E:---------------------------------------------------|

G:---------------------------------------------------|
D:----------------------5-555----5-555---------------|
A:-3-333----3-333------------------------------------|
E:---------------------------------------------------|

Verse:
G:---------------------------------------------------|
D:----------------------5-555----5-555---------------|
A:-6-666----6-666------------------------------------|
E:---------------------------------------------------|

G:---------------------------------------------------|
D:----------------------5-555----5-555---------------|
A:-6-666----6-666------------------------------------|
E:---------------------------------------------------|

G:---------------------------------------------------|
D:----------------------5-555----5-555---------------|
A:-6-666----6-666------------------------------------|
E:---------------------------------------------------|

G:---------------------------------------------------|
D:----------------------5-555----5-555---------------|
A:-6-666----6-666------------------------------------|
E:---------------------------------------------------|

Chorus:
G:-------5---------------------8---------------------|
D:---------------------------------------------------|
A:--3-0h3---3-----------06-0h6---6-------------------|
E:---------------------------------------------------|

G:---------------------------------------------------|x4
D:--------5--------------------8---------------------|
A:---------------------------------------------------|
E:--03-0h3---3----------06-0h6---6-------------------|

Verse:
G:---------------------------------------------------|
D:----------------------5-555----5-555---------------|
A:-6-666----6-666------------------------------------|
E:---------------------------------------------------|

G:---------------------------------------------------|
D:----------------------5-555----5-555---------------|
A:-6-666----6-666------------------------------------|
E:---------------------------------------------------|

G:---------------------------------------------------|
D:----------------------5-555----5-555---------------|
A:-6-666----6-666------------------------------------|
E:---------------------------------------------------|

G:---------------------------------------------------|
D:----------------------5-555----5-555---------------|
A:-6-666----6-666------------------------------------|
E:---------------------------------------------------|


Chorus:
G:-------5---------------------8---------------------|
D:---------------------------------------------------|
A:--3-0h3---3-----------06-0h6---6-------------------|
E:---------------------------------------------------|

G:---------------------------------------------------|x4
D:--------5--------------------8---------------------|
A:---------------------------------------------------|
E:--03-0h3---3----------06-0h6---6-------------------|


G:---------------------------------------------------|
D:----------------------5-555----5-555---------------|
A:-6-666----6-666------------------------------------|
E:---------------------------------------------------|

G:---------------------------------------------------|
D:----------------------5-555----5-555---------------|
A:-6-666----6-666------------------------------------|
E:---------------------------------------------------|


G:-------8------------------------------------------|
D:-------------------------------5------------------|
A:-6-0h6---6----------------------------------------|
E:-------------------------3-0h3---3----------------|

G:-------8------------------------------------------|
D:-------------------------------5------------------|
A:-6-0h6---6----------------------------------------|
E:-------------------------3-0h3---3----------------|

Chorus:
G:-------5---------------------8---------------------|
D:---------------------------------------------------|
A:--3-0h3---3-----------06-0h6---6-------------------|
E:---------------------------------------------------|

G:---------------------------------------------------|x4
D:--------5--------------------8---------------------|
A:---------------------------------------------------|
E:--03-0h3---3----------06-0h6---6-------------------|

Ending:
G:---------------------------------------------------|
D:----------------------5-555----5-555---------------|
A:-6-666----6-666------------------------------------|
E:---------------------------------------------------|

G:---------------------------------------------------|
D:----------------------5-555----5-555---------------|
A:-6-666----6-666------------------------------------|
E:---------------------------------------------------|

I know that this tab isn't 100% correct, but i think all the notes are correct :)

Please rate.
Suggest correction
comments
print report bad tab
7 comments total. Showing first comments.
0 reply
Dr Sin 468 Sep 15, 2009 11:54 AM

You know this song is all Slap Bass rite?

+4 reply
Riggy 16 Sep 16, 2009 05:22 PM

It's not actually, it's a combination of slap and regularly played finger bass.

0 reply
Harriet123P 40 Sep 19, 2009 06:07 AM

Is there anyone who could possibly write out the chorus tabs here saying which notes are 'slap' and which ones are 'pop'? I'm no expert at slap bass but I'm really keen to learn this song right :)

guest
You may want to rate the tab now too:
select rating
Wanna post a correction for this tab? Suggest correction