Oops, an error
Loading. Please wait.

Undisclosed Desires Bass Tab

version 2
version 2
by Muse
84,633 views 111 this week
17 commentsread comments
1 2 3 4 5
x 48
add to favorites
launch autoscroll
font size
0
reset
guitar tuner
Autoscroll
slow
fast
+/-
esc
set tempo
stop
Help us to improve Ultimate-Guitar.com Take our survey!
×
Author
Difficulty
novice
Band: Muse
Song: Undisclosed Desires
Album: The Resistance (2009)
Bassist: Chris Wolstenholme
Tuning: Standard

Intro:

G|------------------------------------------|
D|------------------------------------------|
A|-3-333-3----3-333-3-----------------------|
E|-----------------------3-333-3----3-333-3-| x2

Verse:

G|------------------------------------------|
D|------------------------------------------|
A|-6-666-6----6-666-6-----------------------|
E|-----------------------3-333-3----3-333-3-| x4

Chorus:
   s ssp s    s s ssp s    s s ssp s    s s ssp s
G|-----5------------8-----------------------------|     s - slap
D|-------------------------------5------------8---|     p - pop
A|-3-33--3----3/6-66--6---------------------------|
E|-------------------------1/3-33--3----3/6-66--6-| x4

Verse:

G|------------------------------------------|
D|------------------------------------------|
A|-6-666-6----6-666-6-----------------------|
E|-----------------------3-333-3----3-333-3-| x4

Chorus:
   s ssp s    s s ssp s    s s ssp s    s s ssp s
G|-----5------------8-----------------------------|
D|-------------------------------5------------8---|
A|-3-33--3----3/6-66--6---------------------------|
E|-------------------------1/3-33--3----3/6-66--6-| x4

Bridge:


G|------------------------------------------|
D|------------------------------------------|
A|-3-333-3----3-333-3-----------------------|
E|-----------------------3-333-3----3-333-3-| x2

Verse:
   s ssp s               s ssp s
G|-----8------------------------------------|
D|---------------------------5--------------|
A|-6-66--6----6-666-6-----------------------|
E|-----------------------3-33--3----3-333-3-| x2

Chorus:
   s ssp s    s s ssp s    s s ssp s    s s ssp s
G|-----5------------8-----------------------------|
D|-------------------------------5------------8---|
A|-3-33--3----3/6-66--6---------------------------|
E|-------------------------1/3-33--3----3/6-66--6-| x4

Ending:

G|------------------------------------------|
D|------------------------------------------|
A|-6-666-6----6-666-6-----------------------|
E|-----------------------3-333-3----3-333-3-| x2

/  slide up
\  slide down
h  hammer-on
p  pull-off
~  let ring
s  slap
p  pop
Suggest correction
comments
print report bad tab
17 comments total. Showing first comments.
0 reply
hernandeznathan 10 Oct 16, 2009 05:26 PM

WOW! This is perfect! And you even wrote where to slap and pop. great job!

0 reply
BCarey2293 131 Nov 04, 2009 10:19 PM

If you watch the new video it looks like Chris is playing the strings part (1:36). Just because it's in the video doesn't mean he actually plays something there but it's a good possibility.

0 reply
4useless 2,618 Nov 05, 2009 01:00 PM

Yeah - i saw it yesterday too. Maybe some day I'll add them.

guest
You may want to rate the tab now too:
select rating
Wanna post a correction for this tab? Suggest correction