Oops, an error
Loading. Please wait.

Undisclosed Desires Bass Tab

version 3
version 3
by Muse
16,276 views 9 this week
1 commentread comment
1 2 3 4 5
please rate
add to favorites
launch autoscroll
font size
0
reset
guitar tuner
Autoscroll
slow
fast
+/-
esc
set tempo
stop
Help us to improve Ultimate-Guitar.com Take our survey!
×
Author
Difficulty
novice
Hi, if u like/use this tab please comment or rate, thx!
Dont post any negative/dumb comments, instead post suggestions/constructive 
comments. This is the tab for the live version, played at Live On Later with Jools Holland.
(Originally posted by Jwv_ at www.ultimate-guitar.com)

s - slap
p - pop

Intro (0:00)
                                                                        x2
G|----------------------------------------------------------------------||
D|o--------------------------------------------------------------------o||
A|o-3--3-3-3--3----3--3-3-3--3----10--10-10-10--10----10--10-10-10--10-o||
E|----------------------------------------------------------------------||

Verse # 1 (0:16)
                                                                        x2
G|----------------------------------------------------------------------||
D|o--------------------------------------------------------------------o||
A|o-3--3-3-3--3----3--3-3-3--3----10--10-10-10--10----10--10-10-10--10-o||
E|----------------------------------------------------------------------||
                                                                        x2
G|----------------------------------------------------------------------||
D|o--------------------------------------------------------------------o||
A|o-6--6-6-6--6----6--6-6-6--6----10--10-10-10--10----10--10-10-10-10--o||
E|----------------------------------------------------------------------||

Chorus # 1 (0:49)
    s   s   p s     s s s s p s     s s   s s p s     s s s s p s  x4
G|----------5---------------8---------------------------------3----||
D|o-------------------------------------------5-------------------o||
A|o-3p0-3p0---3-----0-6-6-6---6-----------------------0-1-1-1---1-o||
E|----------------------------------1-1/3-3-3---3------------------||

Verse # 2 (1:22)
                                                                        x2
G|----------------------------------------------------------------------||
D|o--------------------------------------------------------------------o||
A|o-3--3-3-3--3----3--3-3-3--3----10--10-10-10--10----10--10-10-10--10-o||
E|----------------------------------------------------------------------||
   s s s p s          s s s p s          s s s p s          s s s p s
G|-------8-------------------------------------8----------------------|
D|---------------------------5------------------------------------5---|
A|-6-6-6---6-----------------------------6-6-6---6--------------------|
E|--------------------3-3-3---3-----------------------------3-3-3---3-|
  “Please me…”       “Show me…”         “Tease me…”        “You are…”

Chorus # 2 (1:55)
    s   s   p s     s s s s p s     s s   s s p s     s s s s p s  x4
G|----------5---------------8---------------------------------3----||
D|o-------------------------------------------5-------------------o||
A|o-3p0-3p0---3-----0-6-6-6---6-----------------------0-1-1-1---1-o||
E|----------------------------------1-1/3-3-3---3------------------||

Verse # 3 (2:45)
                                                                        x2
G|----------------------------------------------------------------------||
D|o--------------------------------------------------------------------o||
A|o-3--3-3-3--3----3--3-3-3--3----10--10-10-10--10----10--10-10-10--10-o||
E|----------------------------------------------------------------------||
   s s s p s          s s s p s          s s s p s          s s s p s
G|-------8-------------------------------------8----------------------|
D|---------------------------5------------------------------------5---|
A|-6-6-6---6-----------------------------6-6-6---6--------------------|
E|--------------------3-3-3---3-----------------------------3-3-3---3-|
  “Please me…”       “Show me…”         “Tease me…”        “You are…”

Chorus # 3 (3:02)
    s   s   p s     s s s s p s     s s   s s p s     s s s s p s  x4
G|----------5---------------8---------------------------------3----||
D|o-------------------------------------------5-------------------o||
A|o-3p0-3p0---3-----0-6-6-6---6-----------------------0-1-1-1---1-o||
E|----------------------------------1-1/3-3-3---3------------------||

Outro (3:35)
                                                                        x2
G|----------------------------------------------------------------------||
D|o--------------------------------------------------------------------o||
A|o-3--3-3-3--3----3--3-3-3--3----10--10-10-10--10----10--10-10-10--10-o||
E|----------------------------------------------------------------------||

Suggest correction
What's this?
You can suggest a correction to this tab. Community and Mods will review your correction and vote to approve or reject it.
comments
We did not receive enough feedback on this tab! Please rate:
print report bad tab
1 2 3 4 5
1 comment total.
0 reply
Raccio14 468 wrote on November 11 2009, 08:24 pm

Not so great. Pretty far off in fact.

If it's already good, there's no reason to try to fix it; and version 2 was already spot on.

Try tabbing stuff that doesn't already have a good tab?

guest
You may want to rate the tab now too:
select rating
Please do not post tabs as comments. Select "correction" instead!