Oops, an error
Loading. Please wait.

Undisclosed Desires Tab

version 3
version 3

Whole song

by Muse
6,259 views 18 this week
no commentswrite comment
1 2 3 4 5
accurate
x 3
add to favorites
launch autoscroll
font size
0
reset
how to read this tab
guitar tuner
Autoscroll
slow
fast
+/-
esc
set tempo
stop
Help us to improve Ultimate-Guitar.com Take our survey!
×
Author
Difficulty
novice
Muse - Undisclosed Desires

This is the violin part arranged for the guitar, the previous tab was almost right 
but not quite :)

you may think the first note tabbed in the verse is supposed to be played twice to 
the drums, however this is incorrect, the first note is played on the off-beat of beat one, 
on the second kick of the bass drum of the bar.

Tuning:standard

Verse:

Chords in brackets are intro chords the other chords are verse chords

   Eb                   Gm
  (Cm)                 (Gm)
e|----------11-------|----------11--------|
B|-------------11----|-------------11-----|
G|----------------12-|----------------12--| x2
D|-------------------|--------------------|
A|-10-13-10----------|-10-13-10-----------|
E|-------------------|--------------------|

  Eb                   Gm
 (Cm)                 (Gm)
e|----------10-------|----------10--------|
B|-------------11----|-------------11-----|
G|----------------12-|----------------12--| x2
D|-------------------|--------------------|
A|-10-12-10----------|-10-12-10-----------|
E|-------------------|--------------------|

This is done twice through for the intro and then 4 times in the verse

Chorus:

the note in brackets, (13), is only played on repeat, not on the first time round
  Cm                      Eb                      Gm
e:--------------15-------|--------------15-------|----------------15-------|
B:-(13)------16----15-16-|-----------16----15-16-|-------------15----15----|
G:-----------------------|-15--------------------|----------------------15-|
D:-----------------------|-----------------------|-------------------------|
A:-----------------------|-----------------------|-------------------------|
E:-----------------------|-----------------------|-------------------------|
 Bb
e:--------------13-------|----------------------|
B:-----------15-------15-|-13-------------------| <- repeated note
G:-----------------15----|----------------------|
D:-15--------------------|----------------------|               Chorus is repeated 4 times
A:-----------------------|----------------------|
E:-----------------------|----------------------|

Bridge:
  Eb
A:--10-13-10-10-|--10-12-10-10-|
  Gm
A:--10-13-10-10-|--10-12-10-10-| x4

Outro:
  Eb                             Gm
e:-11------------|-11-----------|-10-----------|-10-----------|
B:----11---------|----11--------|----11--------|----11--------|
G:-------12------|-------12-----|-------12-----|-------12-----|
D:---------------|--------------|--------------|--------------|
A:---------------|--------------|--------------|--------------|
E:---------------|--------------|--------------|--------------|

Order:

Intro
Verse
Chorus
Verse
Chorus
Middle
Chorus
Outro

For any help just contact me on joeshrimpling@googlemail.com

thanks
Suggest correction
Give kudos to tab author, rate the tab!
1 2 3 4 5
comments
print report bad tab
guest
You may want to rate the tab now too:
select rating
Please do not post tabs as comments. Select "correction" instead!