Oops, an error
Loading. Please wait.

Undisclosed Desires Bass Tab

version 4
version 4
by Muse
1,783 views 1 this week
no commentswrite comment
1 2 3 4 5
please rate
add to favorites
launch autoscroll
font size
0
reset
guitar tuner
Autoscroll
slow
fast
+/-
esc
set tempo
stop
Help us to improve Ultimate-Guitar.com Take our survey!
×
Contributor
Difficulty
intermediate
Hope this is correct - sounds right anyway.

Intro:
G:--------------------------------------------------------------|
D:--------------------------------------------------------------|
A:-3-333----3-333----------------10-10.10.10----10-10.10.10-----|
E:--------------------------------------------------------------|

G:--------------------------------------------------------------|
D:--------------------------------------------------------------|
A:-3-333----3-333----------------10-10.10.10----10-10.10.10-----|
E:--------------------------------------------------------------|

Verse: "Soothing"
G:---------------------------------------------------------------|
D:---------------------------------------------------------------|
A:-6-666----6-666----------------10-10.10.10----10-10.10.10------|
E:---------------------------------------------------------------|

G:---------------------------------------------------------------|
D:---------------------------------------------------------------|
A:-6-666----6-666----------------10-10.10.10----10-10.10.10------|
E:---------------------------------------------------------------|

Chorus: (X4)
G:----------------------------------------8-----------------------|
D:--------------10------------------------------------------------|
A:------------------------------3 / 666---6-----------------------|
E:--3 / 888------8------------------------------------------------|

G:----------------------------------------------------------|x4
D:-----------5------------------------------3---------------|
A:-----------------------------0  111---------1-------------|
E:--0 / 333---3---------------------------------------------|

Verse:
G:---------------------------------------------------------------|
D:---------------------------------------------------------------|
A:-3-333----3-333----------------10-10.10.10----10-10.10.10------|
E:---------------------------------------------------------------|

G:----------------------------------------------------------------|
D:----------------------------------------------------------------|
A:-3-333----3-333----------------10-10.10.10-----10-10.10.10------|
E:----------------------------------------------------------------|

Verse: "Please me"
G:---------------------------------------------------------------|
D:---------------------------------------------------------------|
A:-6-666----6-666----------------10-10.10.10----10-10.10.10------|
E:---------------------------------------------------------------|

G:----------------------------------------------------------------|
D:----------------------------------------------------------------|
A:-6-666----6-666----------------10-10.10.10-----10-10.10.10------|
E:----------------------------------------------------------------|


Chorus: (X4)
G:----------------------------------------8-----------------------|
D:--------------10------------------------------------------------|
A:------------------------------3 / 666---6-----------------------|
E:--3 / 888------8------------------------------------------------|

G:----------------------------------------------------------|
D:-----------5------------------------------3---------------|
A:-----------------------------0  111---------1-------------|
E:--0 / 333---3---------------------------------------------|


G:---------------------------------------------------------------|
D:---------------------------------------------------------------|
A:-6-666----6-666----------------10-10.10.10----10-10.10.10------|
E:---------------------------------------------------------------|

G:---------------------------------------------------------------|
D:---------------------------------------------------------------|
A:-6-666----6-666----------------10-10.10.10----10-10.10.10------|
E:---------------------------------------------------------------|


G:-------8--------------------------------------------|
D:-------------------------------5--------------------|
A:-6-66---6-------------------------------------------|
E:-------------------------3-33---3-------------------|

G:-------8--------------------------------------------|
D:-------------------------------5--------------------|
A:-6-66---6-------------------------------------------|
E:-------------------------3-33---3-------------------|

Chorus: (X4)
G:----------------------------------------8-----------------------|
D:--------------10------------------------------------------------|
A:------------------------------3 / 666---6-----------------------|
E:--3 / 888------8------------------------------------------------|

G:----------------------------------------------------------|
D:-----------5------------------------------3---------------|
A:-----------------------------0  111---------1-------------|
E:--0 / 333---3---------------------------------------------|

Ending:
G:----------------------------------------------------------------|
D:----------------------------------------------------------------|
A:-6-666----6-666----------------10-10.10.10----10-10.10.10-------|
E:----------------------------------------------------------------|

G:-----------------------------------------------------------------|
D:-----------------------------------------------------------------|
A:-6-666----6-666----------------10-10.10.10----10-10.10.10--------|
E:-----------------------------------------------------------------|

I'm currently at work so may have the ordering out - but hope you enjoy.

VanSpow89
Suggest correction What's this?
You can suggest a correction to this tab. Community and Mods will review your correction and vote to approve or reject it.
comments
We did not receive enough feedback on this tab! Please rate:
print report bad tab
1 2 3 4 5
I want to post or [tab]
guest
You may want to rate the tab now too:
select rating
Please do not post tabs as comments. Select "correction" instead!