Oops, an error
Loading. Please wait.

Undisclosed Desires Bass Tab

version 5
version 5
by Muse
2,180 views 3 this week
1 commentread comment
1 2 3 4 5
accurate
x 3
add to favorites
launch autoscroll
font size
0
reset
guitar tuner
Autoscroll
slow
fast
+/-
esc
set tempo
stop
Help us to improve Ultimate-Guitar.com Take our survey!
×
Artist : Muse
Song   : Undiclosed Desires
Tuning : Standard

Intro:

G|------------------------------------------|
D|-----------------------5-555-5----5-555-5-|
A|-3-333-3----3-333-3-----------------------|
E|------------------------------------------| x2

Verse:

G|------------------------------------------|
D|-----------------------5-555-5----5-555-5-|
A|-6-666-6----6-666-6-----------------------|
E|------------------------------------------| x4

Chorus:
   s ssp s    s   ssp s    s   ssp s      s ssp s
G|-----5------------8-------------------------3------|   s - slap
D|-------------------------------5-------------------|   p - pop
A|-3-33--3----3/6-66--6-------------------1-11--1----|
E|-------------------------1/3-33--3-----------------| x4

Verse:

G|------------------------------------------|
D|-----------------------5-555-5----5-555-5-|
A|-6-666-6----6-666-6-----------------------|
E|------------------------------------------| x4 x4

Chorus:
   s ssp s    s   ssp s    s   ssp s      s ssp s
G|-----5------------8-------------------------3------|   s - slap
D|-------------------------------5-------------------|   p - pop
A|-3-33--3----3/6-66--6-------------------1-11--1----|
E|-------------------------1/3-33--3-----------------| x4

Bridge:


G|------------------------------------------|
D|------------------------------------------|
A|-3-333-3----3-333-3-----------------------|
E|-----------------------3-333-3----3-333-3-| x2

Verse:
   s ssp s               s ssp s
G|-----8------------------------------------|
D|---------------------------5--------------|
A|-6-66--6----6-666-6-----------------------|
E|-----------------------3-33--3----3-333-3-| x2

Chorus:
   s ssp s    s   ssp s    s   ssp s      s ssp s
G|-----5------------8-------------------------3------|   s - slap
D|-------------------------------5-------------------|   p - pop
A|-3-33--3----3/6-66--6-------------------1-11--1----|
E|-------------------------1/3-33--3-----------------| x4

Ending:
G|------------------------------------------|
D|-----------------------5-555-5----5-555-5-|
A|-6-666-6----6-666-6-----------------------|
E|------------------------------------------| x2

This is my first Bass Tab. Hope you like it :D
Jaro3003 :) Have FUN!!! :D 

/  slide up
\  slide down
h  hammer-on
p  pull-off
~  let ring
s  slap
p  pop
comments
We did not receive enough feedback on this tab! Please rate:
print report bad tab
1 2 3 4 5
1 comment total.
0 reply
Jasonbts 4,501 wrote on October 5 2011, 04:20 pm

It's accurate but... the correct tab already exists. Please make sure there's no identical tabs already on the site before posting your own. There's nothing wrong with posting an improved tab, but please see if there is already one at the same quality as your own.

Congrats on the tab though, the first approved is always exciting!

I want to post or [tab]
guest
You may want to rate the tab now too:
select rating
Please do not post tabs as comments. Select "correction" instead!