Oops, an error
Loading. Please wait.

Unintended Live Bass Tab

version 1
version 1

Whole song

Interactive

by Muse
1,397 views 6 this week
no commentswrite comment
1 2 3 4 5
excellent!
x 1
add to favorites
launch autoscroll
font size
0
reset
guitar tuner
Tab Pro tools
  • play this tab
  • loop segment
  • change instrument
  • show fretboard
  • metronome
Autoscroll
slow
fast
+/-
esc
set tempo
stop
Contributor
Difficulty
intermediate
Band: Muse
Song: Unintended (Live)
Album: HAARP

Tuning: Standard

/: Slide up
\: Slide down
h: Hammer on
p: Pull off


Intro
(00:54) CD
(01:08:00) DVD
C||-----------------------------------------------------------NO-BASS-----------------------|
G||---------------NO-BASS-------------------------------------------------------------------|
D||------------------------------------NO-BASS----------------------------------------------|
A||----NO-BASS--------------------------------------------------------------NO-BASS---------|
E||--------------------------NO-BASS---------------NO-BASS----------------------------------|
B||-----------------------------------------------------------------------------------------|

Part 1
(01:47) CD
(01:08:54) DVD
C||-----------------------------------------------------------------------------------------|
G||--------------------------5--------------------------------------------------------------|
D||--------------5-----------------------------------8-----------7--------------------------|
A||--5-----------------------------------8-----------------------------------5-----------5--|
E||-----------------------------------------------------------------------------------------|
B||-----------------------------------------------------------------------------------------|x2

Part 2
(02:39) CD
(01:09:48) DVD
C||-----------------------------------------------------------------------------------------|
G||---------7------------------------5---------------------------7--6-----------------------|
D||-------7----7--8--7--5----------5----5--7--5---------------8--------8--7--5--------------|
A||--9---------------------8--7------------------8--7--5----8-------------------9----8----7-|
E||-----------------------------------------------------------------------------------------|
B||-----------------------------------------------------------------------------------------|

Part 3
(03:04) CD
(01:10:13) DVD
C||-----------------------------------------------------------------------------------------|
G||--------------------------5--------------------------------------------------------------|
D||--------------5-----8-----------------------7-----8-----------7--------------------------|
A||--5-----7-----------------------7-----8-----------------------------------5-----------5--|
E||-----------------------------------------------------------------------------------------|
B||-----------------------------------------------------------------------------------------|x2

Outro
(03:52) CD
(01:11:03) DVD
C||-----------------------------------------------------|
G||-----------------------------------------------------|
D||--5--------------------------------------------------|
A||--------8-----7-----6-----5-----5-----5-----5-----5--|
E||-----------------------------------------------------|
B||-----------------------------------------------------|

Enjoy!
Tabbed by Chrazini
comments
We did not receive enough feedback on this tab! Please rate:
print report bad tab
1 2 3 4 5
I want to post or [tab]
guest
You may want to rate the tab now too:
select rating
Please do not post tabs as comments. Select "correction" instead!