Oops, an error
Loading. Please wait.

Unintended Tab

version 1
version 1

Live

Whole song

by Muse
33,318 views 45 this week
2 commentsread comments
1 2 3 4 5
x 27
add to favorites
launch autoscroll
font size
0
reset
how to read this tab
guitar tuner
Autoscroll
slow
fast
+/-
esc
set tempo
stop
Help us to improve Ultimate-Guitar.com Take our survey!
×
Author
Capo
5th fret
Unintended
Muse
HAARP DVD "Live From Wembley"
Tuning: Standard | Capo: 5

[Intro]
     Aadd11                                                     Amadd11
e|---------------0---------------|----------0---------------|----------------0---------------|
B|-------------4---4-----4-------|--------4---4-----4-------|--------------4---4-----4-------|
G|-----------6-------6-----6-----|------6-------6-----6-----|------------6-------6-----6-----|
D|---------7-----------7-----7---|----7-----------7-----7---|----------5-----------5-----5---|
A|--0--------------------------0-|--0---------------------0-|--0---------------------------0-|
E|-------------------------------|--------------------------|--------------------------------|

                               Am6add11
e|----------0---------------|-----------------0---------------|----------0---------------|
B|--------4---4-----4-------|---------------4---4-----4-------|--------4---4-----4-------|
G|------6-------6-----6-----|-------------5-------5-----5-----|------5-------5-----5-----|
D|----5-----------5-----5---|-----------4-----------4-----4---|----4-----------4-----4---|
A|--0---------------------0-|--0----------------------------0-|--0---------------------0-|
E|--------------------------|---------------------------------|--------------------------|

    Dm6add9                                                       Dadd9
e|------------------0---------------|----------0---------------|--------------0---------------|
B|----------------3---3-----3-------|--------3---3-----3-------|------------2---2-----2-------|
G|--------------4-------4-----4-----|------4-------4-----4-----|----------4-------4-----4-----|
D|------------3-----------3-----3---|----3-----------3-----3---|--------2-----------2-----2---|
A|--0-----------------------------0-|--0---------------------0-|--0-------------------------0-|
E|----------------------------------|--------------------------|------------------------------|

                               Dmadd9
e|----------0---------------|---------------0---------------|----------0---------------|
B|--------2---2-----2-------|-------------0---0-----0-------|--------0---0-----0-------|
G|------4-------4-----4-----|-----------5-------5-----5-----|------5-------5-----5-----|
D|----2-----------2-----2---|---------2-----------2-----2---|----2-----------2-----2---|
A|--0---------------------0-|--0--------------------------0-|--0---------------------0-|
E|--------------------------|-------------------------------|--------------------------|

    Cmaj7                                                       Asus2/F#
e|----------------0---------------|----------0---------------|----------------0---------------|
B|--------------0---0-----0-------|--------0---0-----0-------|--------------0---0-----0-------|
G|------------5-------5-----5-----|------5-------5-----5-----|------------2-------2-----2-----|
D|----------2-----------2-----2---|----2-----------2-----2---|----------2-----------2-----2---|
A|--------------------------------|--------------------------|--------------------------------|
E|--3---------------------------3-|--3---------------------3-|--2---------------------------2-|

                               Asus2/F
e|----------0---------------|-----------------0---------------|----------0---------------|
B|--------0---0-----0-------|---------------0---0-----0-------|--------0---0-----0-------|
G|------2-------2-----2-----|-------------2-------2-----2-----|------2-------2-----2-----|
D|----2-----------2-----2---|-----------2-----------2-----2---|----2-----------2-----2---|
A|--------------------------|---------------------------------|--------------------------|
E|--2---------------------2-|--1----------------------------1-|--1---------------------1-|

    Asus2
e|--------------0---------------|----------0---------------|
B|------------0---0-----0-------|--------0---0-----0-------|
G|----------2-------2-----2-----|------2-------2-----2-----|
D|--------2-----------2-----2---|----2-----------2-----2---|
A|------------------------------|--------------------------|
E|--0-------------------------0-|--0---------------------0-|

    E                          E
e|----------0---------------|--0------------|
B|--------0---0-----0-------|--0------------|
G|------1-------1-----1-----|--1------------|
D|----2-----------2-----2---|--2------------|
A|------------------------2-|--2------------|
E|--0-----------------------|--0------------|

[Verse 1]
  A                          Dm                         G
e|--------------0-----------|--------------1-----------|--------------3-----------|
B|-----------------2--------|--------3--------3--------|-----------------0--------|
G|--------2-----------2-----|-----2-----2--------2-----|--------0-----------0-----|
D|-----2-----2-----------2--|--0--------------------0--|-----0-----0-----------0--|
A|--0-----------------------|--------------------------|--------------------------|
E|--------------------------|--------------------------|--3-----------------------|

    C                          F                          E
e|--------------0-----------|--------------1-----------|--------------0-----------|
B|-----------------1--------|-----------------1--------|-----------------0--------|
G|--------0-----------0-----|--------2-----------2-----|--------1-----------1-----|
D|-----2-----2-----------2--|-----3-----3-----------3--|-----2-----2-----------2--|
A|--3-----------------------|--------------------------|--------------------------|
E|--------------------------|--1-----------------------|--0-----------------------|

    A
e|--------------0----------|--------------0-----------||   X    X  4   4-|
B|-------------------------|-----------------2--------||    X  X   4   4-|
G|--------2----------2-----|--------2-----------2-----||     XX    4   4-|
D|-----2-----2----------2--|-----2-----2-----------2--||     XX    44444-|
A|--0----------------------|--0-----------------------||    X  X       4-|
E|-------------------------|--------------------------||   X    X      4-|

[Verse 2]
  A                                 Dm
e|---------------------------------|----------1---------------1-------|
B|---------2---------------2-------|------3-----3---3-----3-----3---3-|
G|-----2-----2---2-----2-----2---2-|----2---2-----2-----2---2-----2---|
D|---2---2-----2-----2---2-----2---|-0----------------0---------------|
A|-0---------------0---------------|----------------------------------|
E|---------------------------------|----------------------------------|

    G                               C
e|-----------------3-------3-----|------------------0---------------|
B|---------0---------------------|----------1---------1-----1-------|
G|-----0-----0---0---0---0---0---|------0-----0---0-----0-----0---0-|
D|---0---0-----0-------0-------0-|----2---2-----2---------2-----2---|
A|-------------------------------|--3-------------------------------|
E|-3-----------------------------|----------------------------------|

    F                                   E
e|-------------------1-------1-------|------------------0-------0-------|
B|-----------1---------1-------1-----|----------0-----------------------|
G|-------2-----2---2-----2-------2---|------1-----1---1---1---1---1---1-|
D|-----3---3-----3---------3-------3-|----2---2-----2-------2-------2---|
A|-----------------------------------|----------------------------------|
E|--1--------------------------------|--0-------------------------------|

    A                                  Am
e|------------------0---------------|-----------0---------------0-------||
B|----------2---------------2-------|--1----------------------0---------||
G|------2-----2---2---2---2---2---2-|-----2---2---2---2-1---1-----1---1-||
D|----2---2-----2-------2-------2---|-------2-------2-----2---------2---||
A|--0-------------------------------|-----------------------------------||
E|----------------------------------|-----------------------------------||

[Bridge]
    A                                  Dm
e|------------------0-------0-------|-----------1-------1-------1-------|
B|----------2-----------------------|-------3-----3---3---3---3---3---3-|
G|------2-----2---2---2---2---2---2-|-----2---2-----2-------2-------2---|
D|----2---2-----2-------2-------2---|--0--------------------------------|
A|--0-------------------------------|-----------------------------------|
E|----------------------------------|-----------------------------------|

    G                                  C
e|------------------3-------3-------|------------------0-------0-------|
B|----------0-----------------------|----------1---------1-------1---1-|
G|------0-----0---0---0---0---0---0-|------0-----0---0-----0-------0---|
D|----0---0-----0-------0-------0---|----2---2-----2---------2---------|
A|----------------------------------|--3-------------------------------|
E|--3-------------------------------|----------------------------------|

    F                                  E
e|-------------------1---------------|------------------0-------0-------|
B|-----------1---------------1-------|----------0-----------------------|
G|-------2-----2---2---2---2---2---2-|------1-----1---1---1---1---1---1-|
D|-----3---3-----3-------3-------3---|----2---2-----2-------2-------2---|
A|-----------------------------------|----------------------------------|
E|--1--------------------------------|--0-------------------------------|

    A
e|------------------0---------------|------------------0---------------||
B|----------2---------------2-------|----------2---------------2-------||
G|------2-----2---2---2---2---2---2-|------2-----2---2---2---2---2---2-||
D|----2---2-----2-------2-------2---|----2---2-----2-------2-------2---||
A|--0-------------------------------|--0-------------------------------||
E|----------------------------------|----------------------------------||

     A                                 Dm
e||------------------0--------------|-----------1-------1-------1-------|
B||----------2-------------2--------|-------3-----3---3---3---3---3---0-|
G||------2-----2---2---2-------2----|-----2---2-----2-------2-------2---|
D||----2---2-----2-------2---2---2--|--0--------------------------------|
A||--0------------------------------|-----------------------------------|
E||---------------------------------|-----------------------------------|

    G                                  C
e|------------------3---------------|------------------0---------------|
B|----------0---------------0-------|----------1---------1-----1-------|
G|------0-----0---0---0---0---0---0-|------0-----0---0-----0-----0---0-|
D|----0---0-----0-------0-------0---|----2---2-----2---------2-----2---|
A|----------------------------------|--3-------------------------------|
E|--3-------------------------------|----------------------------------|

    F                                  E
e|-------------------1---------------|------------------0-----------------|
B|-----------1---------------1-------|----------0---------------(0)-------|
G|-------2-----2---2---2---2---2---2-|------1-----1---1---1---1-----1---1-|
D|-----3---3-----3-------3-------3---|----2---2-----2-------2---------2---|
A|-----------------------------------|------------------------------------|
E|--1--------------------------------|--0---------------------------------|

    A
e|------------------0---------------|------------------0------0-------|
B|----------2---------------2-------|----------2----------------2---3-|
G|------2-----2---2---2---2---2---2-|------2-----2---2---2------------|
D|----2---2-----2-------2-------2---|----2---2-----2-------2------2---|
A|--0-------------------------------|--0------------------------------|
E|----------------------------------|---------------------------------|

    Dm                         Dm
e|--------------1-----------|--------------1-----------|
B|--------3-----------3-----|--------3-----------3-----|
G|-----2-----2-----2-----2--|-----2-----2-----2-----2--|
D|--0-----------------------|--0-----------------------|
A|--------------------------|--------------------------|
E|--------------------------|--------------------------|

    Dsus2                                                   Asus4
e|-----------------0----------|--------------0-----------|----------------------0---------------|
B|-----------3--------3-------|--------3--------3--------|--------------3---------3-----3-------|
G|--------2-----2--------2----|-----2-----2--------2-----|----------2-----2---2-----2-----2---2-|
D|--0-------------------------|--0--------------------0--|--------2---2-----2---------2-----2---|
A|----------------------------|--------------------------|--0-----------------------------------|
E|----------------------------|--------------------------|--------------------------------------|

                                       A
e|------------------0---------------|------------------0-------0-------|-------------------||
B|----------3---------3-----3-------|----------2---------2-------2-----|--2----------------||
G|------2-----2---2-----2-----2---2-|------2-----2---2-----2-------2---|--2----------------||
D|----2---2-----2---------2-----2---|----2---2-----2---------2-------2-|--2----------------||
A|--0-------------------------------|--0-------------------------------|-------------------||
E|----------------------------------|----------------------------------|-------------------||



************************************

| (n)  Ghost note

************************************
Suggest correction
comments
print report bad tab
2 comments total.
+1 reply
booshki 100 Jul 04, 2013 11:57 PM

Perfect tab.

0 reply
jalutz910 12 Aug 08, 2016 06:47 PM

This tab is fantastic! There's just one small mistake in the second chord form of the intro. Instead of 754 it should be 564 on the dgb strings.

guest
You may want to rate the tab now too:
select rating
Wanna post a correction for this tab? Suggest correction