Oops, an error
Loading. Please wait.

Unintended Tab

version 2
version 2

Live

Whole song

by Muse
2,524 views 3 this week
no commentswrite comment
1 2 3 4 5
3 more votes to show rating
add to favorites
launch autoscroll
font size
0
reset
how to read this tab
guitar tuner
Autoscroll
slow
fast
+/-
esc
set tempo
stop
Help us to improve Ultimate-Guitar.com Take our survey!
×
Author
Difficulty
Capo
novice
5th fret
capo 5 Frette

Chords :

A Dm G C F
E A

End :

D
Dsus2

 A

e-----0-----|
B------2----|
G---2---2---|
D--2-2---2--|
A-0---------|
E-----------|
x3

  Dm        G         C          F         E         A

e-----1---------3----------0---------1---------0---------0---------0---------0----|
B---3--3---------3----------1---------1---------0---------2---------2---------2---|
G--2-2--2---------4-----0----0-----2---2---------1-----2---2-----2---2-----2---2--|
D-0------0----5----5---2------1---3-3---3----2----2---2-2---2---2-2---2---2-2---2-|
A------------5-5---------3------------------2-2------0---------0---------0--------|
E-----------3---------0----------1---------0--------------------------------------|

End :
  D
e-----1----|
B---3--3---|
G--2-2--2--|
D-0--------|
A----------|
E----------|
x2


  Dsus2
e-----0----|
B---3--3---|
G--2-2--2--|
D-0--------|
A----------|
E----------|
x4

  A
e-0
B-2
G-2
D-2
A-0
E-x
Suggest correction
Give kudos to tab author, rate the tab!
1 2 3 4 5
comments
print report bad tab
guest
You may want to rate the tab now too:
select rating
Wanna post a correction for this tab? Suggest correction