Oops, an error
Loading. Please wait.

Unintended Bass Tab

version 2
version 2
by Muse
17,007 views 27 this week
5 commentsread comments
1 2 3 4 5
excellent!
x 10
add to favorites
launch autoscroll
font size
0
reset
guitar tuner
Tab Pro tools
  • play this tab
  • loop segment
  • change instrument
  • show fretboard
  • metronome
×
Best way to learn
"Unintended"
Autoscroll
slow
fast
+/-
esc
set tempo
stop
Contributor
Song: Unintended
Band: Muse
Album: Showbiz
Tabber: Madagascar
Email: lil_airforce_midget@hotmail.com

~ = let the note ring

There is no bass line at the beginning, it comes in mid-way through the opening chorus.

00:42
Main riff
g|--------------------------------|
d|---------0~---------------------| x3
a|-----0~----------3~--2~---------|
e|-0~----------3~----------0~--0~-|

Each note is played at the start of each bar. 

02:04
g|-----------------------------------------------------------|
d|-----2---------------0-----------------2-1-----------------|
a|---2---2-3-2-------0---0-2---------0-2-----3-2-------------|
e|-0-----------5-3-2---------5-3-2-0------------5-4~--3~--2~-|

This part is played with the melody.

02:32
g|--------------------------------|
d|---------0~---------------------| x2
a|-----0~----------3~--2~---------|
e|-0~----------3~----------0~--0~-|

03:27
Ending
g|---------------------------------|
d|---------------------------------|
a|-0~------------------------------|
e|-----3~--2~--1~--0~--0~--0~--0~--|

Check the song for timing. Its pretty simple.

Any corrections, please email me. =D

 
comments
print report bad tab
5 comments total. Showing first comments. show 1 bad comment
+1 reply
Chrazini wrote on September 12 2009, 03:59 am

Oh there is a bass.
In the Studio recording and in the Live version these days.
I guess you need some better speakers to hear the bass.

+1 reply
Madagascar wrote on September 13 2009, 09:11 am

There is definitely bass. Also, he may be playing it on a guitar that's set up to play like a bass. There usually needs to be some form of bass in a recorded song otherwise it'll sound empty and pretty bad.

It's actually played on an electric double bass. The tone is smoother and because it's a double bass, it's meant to sit back in the mix. It's not a loud song to begin with. Maybe play it through a 3way system with a good sub and you should be able to hear it easily. :)

I want to post or [tab]
guest
You may want to rate the tab now too:
select rating
Please do not post tabs as comments. Select "correction" instead!