Oops, an error
Loading. Please wait.

Unintended Bass Tab

version 3
version 3
by Muse
3,266 views 3 this week
2 commentsread comments
1 2 3 4 5
x 3
add to favorites
launch autoscroll
font size
0
reset
guitar tuner
Autoscroll
slow
fast
+/-
esc
set tempo
stop
Help us to improve Ultimate-Guitar.com Take our survey!
×
Author
Band: Muse
Song: Unintended
Album: Showbiz

Tuning: Standard

/: Slide up
\: Slide down
h: Hammer on
p: Pull off

Notes:
This tab should now be 100% correct, and its sounds very good to me.
Try playing it, and I guess you can figure out the rythem yourself.
The bass starts at 1:08 - Enjoy.


G||---------------------------------------------------------------------------|
D||----------------------0----------------------------------------------------|
A||------------0-----------------------------3---------2----------------------|
E||--0-----------------------------3-----------------------------0---------0--|x2

G||---------9-------------------------7-----------------------------9--8------------|
D||-------9----9--10--9--7----------7----7--9--7----------------10--------10--9--7--|
A||--11---------------------10--9-----------------10--9--7---10---------------------|
E||---------------------------------------------------------------------------------|

G||---------------------------------------------------------------------------|
D||----------------------0----------------------------------------------------|
A||------------0----3-------------------2----3---------2----------------------|
E||--0----2-------------------2----3-----------------------------0---------0--|x2

G||---------------------------------------------------------------------------|
D||---------------------------------------------------------------------------|
A||--10---------8---------7---------6---------5--------4---------0------------|
E||------------------------------------------------------------------------0--|
Suggest correction
Give kudos to tab author, rate the tab!
1 2 3 4 5
comments
print report bad tab
2 comments total.
0 reply
Insaneboy 41 Dec 04, 2008 12:15 PM

Why did you put legends of hammer-ons and pull offs if you even don't used them?

Althought,nice tab!!

0 reply
Chrazini 114 Dec 04, 2008 12:50 PM

I do that to all my tabs. I just a standard template.

guest
You may want to rate the tab now too:
select rating
Wanna post a correction for this tab? Suggest correction