Oops, an error
Loading. Please wait.

Unintended Bass Tab

version 4
version 4
by Muse
554 views 1 this week
1 commentread comment
1 2 3 4 5
2 more votes to show rating
add to favorites
launch autoscroll
font size
0
reset
guitar tuner
Autoscroll
slow
fast
+/-
esc
set tempo
stop
Help us to improve Ultimate-Guitar.com Take our survey!
×
Author
-------------------------------------------------------------------------------
                             Unintended - Muse
-------------------------------------------------------------------------------

Tabbed By: Markus
e-mail: markusd2420@yahoo.com

Tuning: Standard
~ = let note ring

1:10
g|--------------------------------|
d|---------0~---------------------| x2
a|-----0~----------3~--2~---------|
e|-0~----------3~----------0~--0~-|


g|------------------------------------------------------------|
d|------2---------------0-----------------2-1-----------------|
a|-2--2---2-3-2-------0---0-2---------0-2-----3-2-------------|
e|--------------5-3-2---------5-3-2-0------------5-4~--3~--2~-|


g|--------------------------------|
d|---------0~---------------------| 
a|-----0~----------3~--2~---------|
e|-0~----------3~----------0~--0~-|


g|---------------------------------------------------------------------------|
d|----------------------0----------------------------------------------------|
a|------------0----3-------------------2----3---------2~---------------------|
e|--0----4-------------------2----3---------------3--------------0~-----0~---|


g|---------------------------------|
d|---------------------------------|
a|-0~------------------------------|
e|-----3~--2~--1~--0~---0~---------|
Suggest correction
Give kudos to tab author, rate the tab!
1 2 3 4 5
comments
print report bad tab
1 comment total.
0 reply
elefunk 10 May 16, 2012 07:14 AM

Two mistakes - this is the right way.

g|------------------------------|
d|--2-------0--------21---------|
a|-2-232---0-02----03--32-------|
e|0-----532----5320------54-3-2-|

guest
You may want to rate the tab now too:
select rating
Wanna post a correction for this tab? Suggest correction