Oops, an error
Loading. Please wait.

United States Of Eurasia Bass Tab

version 1
version 1

Whole song

Interactive

by Muse
11,261 views 3 this week
5 commentsread comments
1 2 3 4 5
x 4
add to favorites
launch autoscroll
font size
0
reset
guitar tuner
Autoscroll
slow
fast
+/-
esc
set tempo
stop
Help us to improve Ultimate-Guitar.com Take our survey!
×
Author
Difficulty
Tuning
novice
D# G# C# F# A# D#
-------------------------------------------------------------------------------
			     United States of Eurasia - Muse
-------------------------------------------------------------------------------

Tabbed By : Jason Wells
e-mail: klutch880@msn.com

Working on the guitar parts too

Tuning: Eb

So there's piano at the beginning, but you can hear when Matt starts singing, a bassline 
plays.
This notes are played clean
Gb|--------------------|
Db|--------------------|
Ab|-7----7--------7----|
Eb|--------------------|

   1st Verse
   This time, follow the pace of the piano
Gb|---------------------------------------------|
Db|---------------------------------------------|
Ab|--7----7----7----7---6-4---------------------|
Eb|--------------------------5--7--8-9--6--7----|

   2nd Verse                           Hit the distortion
Gb|--------------------------------------------------|
Db|--------------------------------------------------|
Ab|--7----7----7----7---6-4--------------------------|
Eb|--------------------------5--7--8-9----6-----7----|

   Hold these notes for four bars
                 | Hit these notes for each beat now
Gb|--------------|----------------------------------|
Db|--------------|----------------------------------|
Ab|--7-----7-----|---7---7---7---7---7---7---7---7--| twice
Eb|-----0-----0--|-0---0---0---0---0---0---0---0----|

   During this verse you hit 28 notes
   Play Clean
Gb|----------------------------------------------------------|
Db|----------------------------------------------------------|
Ab|-7-7-7-7-7-7-7-7-7-7-7-7-7-7-7-7-7-7-7-7-7-7-7-7-7-7-7-7--|
Eb|----------------------------------------------------------|

   Cut this verse short into the chorus, hear in the song for timing
Gb|-9-9-9-9-9-9-9-9-9-9-9-9-9-9-9-9-9-9-9-9-9-9-9-9-8--------|
Db|----------------------------------------------------------|
Ab|----------------------------------------------------------|
Eb|----------------------------------------------------------|

  Chorus bassline, listen for timing
Gb|-------------------------------------------------------------------|
Db|-----6------4h6----------------------------------------------------|
Ab|-4-4---4--4-----------7------5h7------9------7h9------9-------9----|
Eb|------------------5-5---5--5------7-7---7--7------7-7---7-8-8---8--|

Gb|-------------------------------------------------------------------|
Db|-------------------------------------------------------------------|
Ab|-----11------9h11------9------7h9------9------7h9-----9------7h9---|
Eb|-9-9----9--9-------6-6---6--6------7-7---7--7-----7-7---7--7-------|


  Back into the verse, play distorted
Gb|----------------------------------------------------------|
Db|----------------------------------------------------------|
Ab|-7-7-7-7-7-7-7-7-7-7-7-7-7-7-7-7-7-7-7-7-7-7-7-7-7-7-7-7--|
Eb|----------------------------------------------------------|

Gb|-9-9-9-9-9-9-9-9-9-9-9-9-9-9-9-9-9-9-9-9-9-9-9-9-8--------|
Db|----------------------------------------------------------|
Ab|----------------------------------------------------------|
Eb|----------------------------------------------------------|


  Chorus bassline, listen for timing
  Play clean
Gb|-------------------------------------------------------------------|
Db|-----6------4h6----------------------------------------------------|
Ab|-4-4---4--4-----------7------5h7------9------7h9------9-------9----|
Eb|------------------5-5---5--5------7-7---7--7------7-7---7-8-8---8--|

Gb|--------------------------|
Db|--------------------------|
Ab|-----11------9h11---------|
Eb|-9-9----9--9-------6---7--|


 Back into this section         keep distortion on
 Hold these notes for four bars
                 | Hit these notes for each beat now
Gb|--------------|----------------------------------|
Db|--------------|----------------------------------|
Ab|--7-----7-----|---7---7---7---7---7---7---7---7--| twice
Eb|-----0-----0--|-0---0---0---0---0---0---0---0----|

   Outro
Gb|-------------------------------|
Db|-------------------------------|
Ab|------7\-----7\-----7\-----6\--| twice, then
Eb|--000----000----000----000-----|

Gb|-----------------------------------------|
Db|-----------------------------------------|
Ab|------10\-----9\-----8\-----6-(hold)-----|
Eb|--000-----000----000----000----------0---|


| /  slide up
| \  slide down
| h  hammer-on
| p  pull-off
| ~  vibrato
| +  harmonic
| x  Mute note
===============================================================================
Suggest correction
comments
print report bad tab
5 comments total. Showing first comments.
0 reply
Pricey85 216 Jul 25, 2009 12:01 PM

Sorry just not a decent tab. Tuning is wrong and various sections are wrong throughout the tab. Keep trying at it

0 reply
klutch880 72 Aug 02, 2009 08:09 AM

If you've heard the song properly you'll know the tuning is correct thankyou. I know a few of the open Eb notes are off I notice now. Nothing that can't figured out on your own though.

+2 reply
bobbass4k 766 Aug 03, 2009 08:33 PM

Although I agree the tab isn't that good (sorry man, bits are just plain wrong) this IS the CORRECT tuning. It's in the key of Eb, Eb is the lowest note so there's no need to play it in drop d, half step down makes the most sense

guest
You may want to rate the tab now too:
select rating
Wanna post a correction for this tab? Suggest correction