Oops, an error
Loading. Please wait.

United States Of Eurasia Bass Tab

version 2
version 2

Whole song

Interactive

by Muse
15,506 views 3 this week
5 commentsread comments
1 2 3 4 5
accurate
x 13
add to favorites
launch autoscroll
font size
0
reset
guitar tuner
Tab Pro tools
  • play this tab
  • loop segment
  • change instrument
  • show fretboard
  • metronome
Autoscroll
slow
fast
+/-
esc
set tempo
stop
Contributor
Difficulty
Tuning
intermediate
D# G# C# F# A# D#
After Piano intro

Gb|----------------|----------------|
Db|----------------|----------------|
Ab|7-------------45|7---------------|
Eb|----------------|----------------|

verse................................................................
Gb|------------------|------------------|----------------|----------------|
Db|------------------|------------------|----------------|----------------|
Ab|7------4h57-------|7------4h57---6---|4---------------|----------------|
Eb|------------------|------------------|--------5-------|7-----------8---|

Gb|----------------|----------------|
Db|----------------|----------------|
Ab|----------------|----------------|     times two
Eb|9-------2-------|7---------------|

Must we do as we're told............................................
Gb|----------------|----------------|
Db|----------------|----------------|
Ab|----------------|----------------|      times two
Eb|0-------------//|12--------------|

exotic sounding bit.................................................
Gb|----------------------------------------------------------------|
Db|----------------------------------------------------------------|
Ab|----7-------7-------7-------7-------7-------7-------7-------7---|
Eb|0-0-----0-0-----0-0-----0-0-----0-0-----0-0-----0-0-----0-0-----|

Gb|----------------------------------------------------------------|
Db|----------------------------------------------------------------|
Ab|----7-------7-------7-------7-------7-------7-------78810108877-|
Eb|0-0-----0-0-----0-0-----0-0-----0-0-----0-0-----0-0-------------|


2nd verse.........................................................
Gb|----------------|---------------/|9999999999999999|9999999999998888|
Db|----------------|----------------|----------------|----------------|
Ab|7777777777777777|77777777777777--|----------------|----------------|
Eb|----------------|----------------|----------------|----------------|

Gb|----------------|----------------|------------------|----------------|
Db|--6---46--------|----------------|------------------|----------------|
Ab|44-4-4----7---57|--9---79--9--10-|--11---911--4---24|--7---57--7---57|
Eb|--------55-5-5--|77-7-7--77-788-8|99--9-9---22-2-2--|55-5-5--55-5-5--|

Play the verse twice round but at the second time the last two bars should be played 
this

Gb|------------------|----------------|
Db|------------------|----------------|
Ab|--11---911--------|----------------|
Eb|99--9-9---2-2---2-|7---------------|

United States............................................
Gb|----------------|----------------|
Db|----------------|----------------|
Ab|----------------|----------------|      times two
Eb|0-------------//|12--------------|

exotic sounding bit.................................................
Gb|----------------------------------------------------------------|
Db|----------------------------------------------------------------|
Ab|----7-------7-------7-------7-------7-------7-------7-------7---|
Eb|0-0-----0-0-----0-0-----0-0-----0-0-----0-0-----0-0-----0-0-----|

Gb|----------------------------------------------------------------|
Db|----------------------------------------------------------------|
Ab|----7-------7-------7-------7-------7-------7-------78810108877\|
Eb|0-0-----0-0-----0-0-----0-0-----0-0-----0-0-----0-0-------------|

...EuraSIA..... SIA....... SIA... SIA...
Gb|------------------|-----------------|
Db|------------------|-----------------|
Ab|------------------|-----------------| times two
Eb|000-12---000-11---|000-10---000-8///|


I know this is accurate to say the least... the only part I'm unsure about
 is the ending... it sounds like it could either be what I've put down or
 going down the mixolydian scale, they both sound rightish so it souldn't
 matter to much... the rest of the song is 100% garunteed
comments
print report bad tab
5 comments total. Showing first comments.
+4 reply
Ragin_Asian wrote on August 5 2009, 11:20 pm

bahhh
half step tuning sucks xP
but its right nonetheless
cheers on the brilliant tab =)

+5 reply
Rubber wrote on November 16 2009, 01:54 pm

This is how the ending is actually played:

...EuraSIA..... SIA....... SIA... SIA...
Gb|------------------|-----------------|
Db|------------------|-----------------|
Ab|------------------|-----------------| times two
Eb|000-15---000-14---|000-13---000-11//|

Apart from that, great tab.

+3 reply
4useless wrote on June 9 2010, 12:19 pm

Gb|------------------|------------------|----------------|Db|------------------|------------------|----------------|
Ab|7------4h57-------|7------4h57---7-6-|4---------------|
Eb|------------------|------------------|--------5-------| ...

You forgot one note in second bar and Rubber's ending is correct but still great work.

I want to post or [tab]
guest
You may want to rate the tab now too:
select rating
Please do not post tabs as comments. Select "correction" instead!