Oops, an error
Loading. Please wait.

United States Of Eurasia Bass Tab

version 3
version 3

Whole song

Interactive

by Muse
2,855 views 1 this week
no commentswrite comment
1 2 3 4 5
x 4
add to favorites
launch autoscroll
font size
0
reset
guitar tuner
Autoscroll
slow
fast
+/-
esc
set tempo
stop
Help us to improve Ultimate-Guitar.com Take our survey!
×
Author
Difficulty
Tuning
intermediate
D# G# C# F# A# D#
Artist: Muse
Bassist: Chris Wolstenholme
Album: The Resistance
Song: United States of Eurasia

Tabbed by OctoberDistrict (mc8ain@hotmail.com)

Key:
\: Slide Down
/: Slide Up

[Tuning: Down Half a Step Eb,Ab,Db,Gb]

INTRO 0:14
   1 + 2 + 3 + 4 + 1 + 2 + 3 + 4 + 
Gb|----------------------------------|
Db|-------------------------------79-|
Ab|-7--------------------------------|
Eb|----------------------------------|

   1 + 2 + 3 + 4 + 1 + 2 + 3 + 4 + 
Gb|-9--------------------------------|
Db|----------------------------------|
Ab|----------------------------------|
Eb|----------------------------------|

VERSE 1 0:27
   1 + 2 + 3 + 4 + 1 + 2 + 3 + 4 + 
Gb|-----------------9----------------|
Db|---------------79-----------------|
Ab|-7--------------------------------|
Eb|----------------------------------|

   1 + 2 + 3 + 4 + 1 + 2 + 3 + 4 + 
Gb|-----------------9----------------|
Db|---------------79-----------------|
Ab|-7-----------------------7---6----|
Eb|----------------------------------|

   1 + 2 + 3 + 4 + 1 + 2 + 3 + 4 + 
Gb|----------------------------------|
Db|----------------------------------|
Ab|-4-------0-------2-----------3----|
Eb|----------------------------------|

   1 + 2 + 3 + 4 + 1 + 2 + 3 + 4 + 
Gb|----------------------------------|
Db|----------------------------------|
Ab|-4-------1-------2----------------|
Eb|----------------------------------|

Drums Enter 0:55
   1 + 2 + 3 + 4 + 1 + 2 + 3 + 4 + 
Gb|-----------------9----------------|
Db|---------------79-----------------|
Ab|-7--------------------------------|
Eb|----------------------------------|

   1 + 2 + 3 + 4 + 1 + 2 + 3 + 4 + 
Gb|-----------------9----------------|
Db|---------------79-----------------|
Ab|-7-----------------------7---6----|
Eb|----------------------------------|

   1 + 2 + 3 + 4 + 1 + 2 + 3 + 4 + 
Gb|----------------------------------|
Db|----------------------------------|
Ab|-4-------0-------2-----------3----|
Eb|----------------------------------|

1:15	   Be Only One
   1 + 2 + 3 + 4 + 1 + 2 + 3 + 4 + 
Gb|----------------------------------|
Db|----------------------------------|
Ab|-4-------1-------2----------------|
Eb|----------------------------------|

PRE-CHORUS 1:22
   1 + 2 + 3 + 4 + 1 + 2 + 3 + 4 + 
Gb|-----------------9----------------|
Db|---------------79-----------------|
Ab|-7--------------------------------|
Eb|----------------------------------|

   1 + 2 + 3 + 4 + 1 + 2 + 3 + 4 + 
Gb|-----------------9----------------|
Db|---------------79-----------------|
Ab|-7--------------------------------|
Eb|----------------------------------|

EGYPTIAN RIFF 1:33
   1 + 2  + 3 + 4  + 1 + 2  + 3 + 4  + 
Gb|--------------------------------------|
Db|--------------------------------------|
Ab|--------------------------------------|
Eb|-0-0/12---000012--\0-0/12---000012--\-|

   1 + 2  + 3 + 4  + 1 + 2  + 3 + 4  + 
Gb|--------------------------------------|
Db|--------------------------------------|
Ab|--------------------------------------|
Eb|-0-0/12---000012--\0-0/12---000012--\-|

   1 + 2  + 3 + 4  + 1 + 2  + 3 + 4  + 
Gb|--------------------------------------|
Db|--------------------------------------|
Ab|--------------------------------------|
Eb|-0-0/12---000012--\0-0/12---000012--\-|

   1 + 2  + 3 + 4  + 1 + 2   +   3   +   4  + 
Gb|----------------------------------------------|
Db|----------------------------------------------|
Ab|----------------------------------------------|
Eb|-0-0/12---000012--\0-0-121313151513131212-\---|

VERSE 2 1:57
   1 + 2 + 3 + 4 + 1 + 2 + 3 + 4 + 
Gb|----------------------------------|
Db|----------------------------------|
Ab|-7777777777777777777777777777777/-|
Eb|----------------------------------|

   1   +   2   +   3   +   4   +   1   +   2   +   3   +   4   +   
Gb|------------------------------------------------------------------|
Db|------------------------------------------------------------------|
Ab|-1919191919191919191919191919191919191919191919191919191918181818-|
Eb|------------------------------------------------------------------|

2:09
   1 + 2 + 3 + 4 + 1 + 2 + 3 + 4 + 
Gb|----------------------------------|
Db|---6---67----------------------6--|
Ab|-44-4-4--0070-067--7---67--9------|
Eb|-----------------77-7-7--77-788-8-|

   1 + 2 + 3 + 4 + 1 + 2 + 3 + 4 + 
Gb|----------------------------------|
Db|---6---67-------------------------|
Ab|-44-4-4----6---56--9---79--9---79-|
Eb|---------66-6-6--77-7-7--77-7-7---|

2:20
   1 + 2 + 3 + 4 + 1 + 2 + 3 + 4 + 
Gb|----------------------------------|
Db|----------------------------------|
Ab|-7777777777777777777777777777777/-|
Eb|----------------------------------|

   1   +   2   +   3   +   4   +   1   +   2   +   3   +   4   +   
Gb|------------------------------------------------------------------|
Db|------------------------------------------------------------------|
Ab|-1919191919191919191919191919191919191919191919191919191918181818-|
Eb|------------------------------------------------------------------|

   1 + 2 + 3 + 4 + 1 + 2 + 3 + 4 + 
Gb|----------------------------------|
Db|---6---67----------------------6--|
Ab|-44-4-4--0070-067--7---67--9------|
Eb|-----------------77-7-7--77-788-8-|

2:38	   Be Only One
   1 + 2 + 3 + 4 + 1 + 2 + 3 + 4 + 
Gb|----------------------------------|
Db|---6---67-------------------------|
Ab|-44-4-4--7-------2----------------|
Eb|----------------------------------|

PRE-CHORUS 2:44
   1 + 2 + 3 + 4 + 1 + 2 + 3 + 4 + 
Gb|-----------------9----------------|
Db|---------------79-----------------|
Ab|-7--------------------------------|
Eb|----------------------------------|

   1 + 2 + 3 + 4 + 1 + 2 + 3 + 4 + 
Gb|----------------------------------|
Db|---------------79-----------------|
Ab|-7---------------7----------------|
Eb|----------------------------------|

EGYPTIAN RIFF 2:55
   1 + 2  + 3 + 4  + 1 + 2  + 3 + 4  + 
Gb|--------------------------------------|
Db|--------------------------------------|
Ab|--------------------------------------|
Eb|-0-0/12---000012--\0-0/12---000012--\-|

   1 + 2  + 3 + 4  + 1 + 2  + 3 + 4  + 
Gb|--------------------------------------|
Db|--------------------------------------|
Ab|--------------------------------------|
Eb|-0-0/12---000012--\0-0/12---000012--\-|

   1 + 2  + 3 + 4  + 1 + 2  + 3 + 4  + 
Gb|--------------------------------------|
Db|--------------------------------------|
Ab|--------------------------------------|
Eb|-0-0/12---000012--\0-0/12---000012--\-|

   1 + 2  + 3 + 4  + 1 + 2   +   3   +   4  + 
Gb|----------------------------------------------|
Db|----------------------------------------------|
Ab|----------------------------------------------|
Eb|-0-0/12---000012--\0-0-121313151513131212-\---|

OUTRO 3:19
   1 + 2  + 3 + 4  + 1 + 2  + 3 + 4  + 
Gb|-------------------------------------|
Db|-------------------------------------|
Ab|-------------------------------------|
Eb|-0-/-12-\-0-/-12-\-0-/-12-\-0-/-11-\-|

   1 + 2  + 3 + 4  + 1 + 2  + 3 + 4  + 
Gb|-------------------------------------|
Db|-------------------------------------|
Ab|-------------------------------------|
Eb|-0-/-12-\-0-/-12-\-0-/-12-\-0-/-11-\-|

   1 + 2  + 3 + 4 + 1 + 2 + 3 + 4 + 
Gb|----------------------------------|
Db|----------------------------------|
Ab|-----10-\-----9-\-----8-\-----5-\-|
Eb|-0-/------0-/-----0-/-----0-/-----|

   1 + 2 + 3 + 4 + 1 + 2 + 3 + 4 + 
Gb|----------------------------------|
Db|----------------------------------|
Ab|----------------------------------| END.
Eb|-0--------------------------------|

...COLLATERAL DAMAGE
Suggest correction
comments
print report bad tab
guest
You may want to rate the tab now too:
select rating
Wanna post a correction for this tab? Suggest correction