Oops, an error
Loading. Please wait.

United States Of Eurasia Bass Tab

version 4
version 4

Whole song

Interactive

by Muse
672 views 1 this week
no commentswrite comment
1 2 3 4 5
please rate
add to favorites
launch autoscroll
font size
0
reset
guitar tuner
Autoscroll
slow
fast
+/-
esc
set tempo
stop
Help us to improve Ultimate-Guitar.com Take our survey!
×
Author
Difficulty
Tuning
intermediate
D# G# C# F# A# D#
Band: Muse
Song: United States Of Eurasia + Collateral Damage
Album: The Resistance (2009)
Bassist: Chris Wolstenholme
Tuning: Half step down


Gb|-------/9~------------/9~------------/9~-------------------------------|
Db|-----------------------------------------------------------------------|
Ab|7~--4h5--------7~--4h5--------7~--4h5-----7-6-4~-----------------------|
Eb|--------------------------------------------------5~-7~---8-9~--6-7~---|

Gb|---------------------------------------------------------|
Db|---------------------------------------------------------|
Ab|7~--4h5------7~--4h5----7-6-4~---------------------2~----|
Eb|--------0~-----------0~---------5~-7~---8-9~--2~---------|

Gb|-----------------------------|
Db|-----------------------------|
Ab|7~--4h5------7~--4h5---------|
Eb|--------0~-----------0~---12\|

Gb|---------------------------------------------------------|
Db|---------------------------------------------------------|
Ab|----7------7------7------7------7------7------7------7---|
Eb|0-0----0-0----0-0----0-0----0-0----0-0----0-0----0-0-----|

Gb|---------------------------------------------------------|
Db|---------------------------------------------------------|
Ab|----7-----7------7------7------7------7------78810108877\|
Eb|0-0----0-0----0-0----0-0----0-0----0-0----0-0------------|

Gb|----------------------|
Db|------/14(x28)-13(x4)-|
Ab|7(x32)----------------|
Eb|----------------------|

Gb|----------------------------------------------------------------------|
Db|----------------------------------------------------------------------|
Ab|--11---911---7---57--9---79--9---10---11---911--8---68--9---79--9---79|
Eb|99--9-9----55-5-5--77-7-7--77-788--899--9-9---66-6-6--77-7-7--77-7-7--|

Gb|----------------------|
Db|------/14(x28)-13(x4)-|
Ab|7(x32)----------------|
Eb|----------------------|

Gb|----------------------------------------------------------------------|
Db|----------------------------------------------------------------------|
Ab|--11---911---7---57--9---79--9---10---11---911-------2~---------------|
Eb|99--9-9----55-5-5--77-7-7--77-788--899--9-9----2~---------------------|

Gb|-----------------------------|
Db|-----------------------------|
Ab|7~--4h5------7~--4h5---------|
Eb|--------0~-----------0~---12\|

Gb|---------------------------------------------------------|
Db|---------------------------------------------------------|
Ab|----7------7------7------7------7------7------7------7---|
Eb|0-0----0-0----0-0----0-0----0-0----0-0----0-0----0-0-----|

Gb|---------------------------------------------------------|
Db|---------------------------------------------------------|
Ab|----7-----7------7------7------7------7------78810108877\|
Eb|0-0----0-0----0-0----0-0----0-0----0-0----0-0------------|

Ending:

Gb|----------|    |----------|
Db|----------|    |----------|
Ab|----------|    |----------|
Eb|0-0-1212\-| x3 |0-0-1211\-|
  ============================== x2

Gb|-------------------------------------------------------------|
Db|-------------------------------------------------------------|
Ab|-------------------------------------------------------------|
Eb|0-0-12-15\--0-0-12-14\--0-0-12-13\--0-0-12-11\----(7)/12~----|

/  slide up
\  slide down
h  hammer-on
p  pull-off
~  let ring

That's all! Second part of this tab is optional. That's how I play
Collateral Damage or Nocturne In E-Flat Major, Op.9 No.2,
by Frederic Chopin along with piano. I wrote down approximate timings
to make things easier. 

 [3:45]      [3:50]      [3:54]      [3:59]      [4:04]      [4:09]

Gb|------------------------------18----16----------------------------------|
Db|18----16----------------18----------------19----16----18----------------|
Ab|------------19----18----------------------------------------19----16----|
Eb|------------------------------------------------------------------------|
  
 [4:13]      [4:19]      [4:24]      [4:28]      [4:33]      [4:37]    

Gb|------------------------------------------------------------------------|
Db|------------14----------16----------16---\(11)--14----------14----\(9)--|
Ab|14----14----------------------------------------------------------------|
Eb|------------------------------------------------------------------------|

 [4:42]      [4:47]      [4:51]

Gb|16---15--13---------------------------------------------|
Db|------------16----13----14----13-11-13-9-10-10-11-11-13-|
Ab|--------------------------------------------------------|
Eb|--------------------------------------------------------|

 [4:59]    [5:04]      [5:08]      [5:12]      [5:16]      [5:20]

Gb|13--------------------13----13----16----14----------13----------------|
Db|----------14----13----------------------------16----------14----------|
Ab|----------------------------------------------------------------16----|
Eb|----------------------------------------------------------------------|

 [5:25]        [5:32] [5:35]

Gb|---------------------------|
Db|--------------14-----14----|
Ab|14----14-------------14----|
Eb|---------------------------|


/  slide up
\  slide down
h  hammer-on
p  pull-off
~  let ring
() ghost note
Suggest correction
Give kudos to tab author, rate the tab!
1 2 3 4 5
comments
print report bad tab
guest
You may want to rate the tab now too:
select rating
Wanna post a correction for this tab? Suggest correction