Oops, an error
Loading. Please wait.

United States Of Eurasia Bass Tab

version 5
version 5

Whole song

Interactive

by Muse
765 views 1 this week
2 commentsread comments
1 2 3 4 5
please rate
add to favorites
launch autoscroll
font size
0
reset
guitar tuner
Tab Pro tools
  • play this tab
  • loop segment
  • change instrument
  • show fretboard
  • metronome
×
Best way to learn
"United States Of Eurasia"
Autoscroll
slow
fast
+/-
esc
set tempo
stop
Contributor
Difficulty
Tuning
intermediate
D# G# C# F# A# D#
Muse - United States of Eurasia
Saw that there wasn't a bass tab for this song that sounded right and I was sad
Tab written by ear with a bass guitar in hand. Not sure if 100% correct
Tuning: Half-Step Down (Eb Ab Db Gb)

Wait for the piano intro

0:14 Matt starts vocalizing
Gb|--------------------------------|9-------------------------------|
Db|-----------------------------7h9|--------------------------------|
Ab|7-------------------------------|--------------------------------|
Eb|--------------------------------|--------------------------------|
0:28
Gb|----------------9---------------|
Db|-------------7h9----------------|
Ab|7-------------------------------|
Eb|--------------------------------|
0:34
Gb|----------------9---------------|
Db|-------------7h9----------------|
Ab|7-----------------------7---6---|
Eb|--------------------------------|
0:41
Gb|--------------------------------|
Db|--------------------------------|
Ab|4-------------------------------|
Eb|--------5-------7-----------8---|
0:47
Gb|--------------------------------|
Db|--------------------------------|
Ab|--------------------------------|
Eb|9-------6-------7---------------|
0:55
Gb|--------------------------------|
Db|-------------0h2----------------|
Ab|0---------------0---------------|
Eb|--------------------------------|
1:02
Gb|--------------------------------|
Db|--------------------------------|
Ab|-------------0h2--------7---6---|
Eb|0---------------0---------------|
1:08
Gb|--------------------------------|
Db|--------------------------------|
Ab|4-------------------------------|
Eb|--------5-------7-----------8---|
1:16
Gb|--------------------------------|
Db|--------------------------------|
Ab|--------------------------------|
Eb|9-------2-------7---------------|
1:21
Gb|--------------------------------|
Db|-------------7h9----------------|
Ab|7-------------------------------|
Eb|----------------0---------------|
1:27
Gb|--------------------------------|
Db|-------------7h9----------------|
Ab|7---------------------------7---|
Eb|----------------0---------------|
1:34
Gb|--------------------------------|
Db|--------------------------------|
Ab|----7-------7-------7-------7---|
Eb|0-0-----0-0-----0-0-----0-0-----|
1:39
Gb|--------------------------------|
Db|--------------------------------|
Ab|----7-------7-------7-------7---|
Eb|0-0-----0-0-----0-0-----0-0-----|
1:45
Gb|--------------------------------|
Db|--------------------------------|
Ab|----7-------7-------7-------7---|
Eb|0-0-----0-0-----0-0-----0-0-----|
1:51
Gb|--------------------------------|
Db|--------------------------------|
Ab|----7-------7-------788TT8877---| <--in this line,for timing purposes, I have replaced 10 with T
Eb|0-0-----0-0-----0-0-------------|     T=10
1:57
Gb|--------------------------------|
Db|--------------------------------|
Ab|77777777777777777777777777777777|
Eb|--------------------------------|
2:03
Gb|99999999999999999999999999998888| <--- Make an audible slide up to the 9 starting from 8 or 7
Db|--------------------------------|
Ab|--------------------------------|
Eb|--------------------------------|
2:09
Gb|--------------------------------|
Db|--6---46------------------------|
Ab|44-4-4----7---67--9---79--9---11| <--- 11 not 1
Eb|--------55-5-5--77-7-7--77-788-8|
2:15
Gb|--------------------------------|
Db|--------------------------------|
Ab|--11--911-7---67--9---79--9---96|
Eb|99-9-9--66-6-6--77-7-7--77-7-7--|
2:21
Gb|--------------------------------|
Db|--------------------------------|
Ab|77777777777777777777777777777777|
Eb|--------------------------------|
2:26
Gb|99999999999999999999999999998888|
Db|--------------------------------|
Ab|--------------------------------|
Eb|--------------------------------|
2:32
Gb|--------------------------------|
Db|--6---46------------------------|
Ab|44-4-4----7---67--9---79--9---11|
Eb|--------55-5-5--77-7-7--77-788-8|
2:38
Gb|--------------------------------|
Db|--------------------------------|
Ab|--11--911-----------------------|
Eb|99-9-9--2-------7---------------|
2:44
Gb|--------------------------------|
Db|-------------7h9----------------|
Ab|7-------------------------------|
Eb|----------------0---------------|
2:50
Gb|--------------------------------|
Db|-------------7h9----------------|
Ab|7---------------------------7---|
Eb|----------------0---------------|
2:56
Gb|--------------------------------|
Db|--------------------------------|
Ab|----7-------7-------7-------7---|
Eb|0-0-----0-0-----0-0-----0-0-----|
3:02
Gb|--------------------------------|
Db|--------------------------------|
Ab|----7-------7-------7-------7---|
Eb|0-0-----0-0-----0-0-----0-0-----|
3:07
Gb|--------------------------------|
Db|--------------------------------|
Ab|----7-------7-------7-------7---|
Eb|0-0-----0-0-----0-0-----0-0-----|
3:13
Gb|--------------------------------|
Db|--------------------------------|
Ab|----7-------7-------788TT8877---| <--in this line,for timing purposes,I have replaced 10 with T
Eb|0-0-----0-0-----0-0-------------|
3:19
Gb|--------------------------------|
Db|--------------------------------|
Ab|--------------------------------|
Eb|000012\-000012\-000012\-000011\-|
3:25
Gb|--------------------------------|
Db|--------------------------------|
Ab|--------------------------------|
Eb|000012\-000012\-000012\-000011\-|
3:31
Gb|--------------------------------|
Db|--------------------------------|
Ab|--------------------------------|
Eb|000015\-000014\-000013\-000011\-|
3:38
Gb|--------------------------------|
Db|--------------------------------|
Ab|--------------------------------|
Eb|0-------------------------------| <-- Let the final note ring... and ring... and ring...

END OF BASS PART
comments
We did not receive enough feedback on this tab! Please rate:
print report bad tab
1 2 3 4 5
2 comments total.
0 reply
dotShinoda wrote on July 18 2012, 05:31 am

Muse - United States of Eurasia
Tab written by ear with a bass guitar in hand. Not sure if 100% correct
Tuning: Half-Step Down (Eb Ab Db Gb)

Wait for the piano intro

0:14 Matt starts vocalizing
Gb|--------------------------------|9-------------------------------|
Db|-----------------------------7h9|--------------------------------|
Ab|7-------------------------------|--------------------------------|
Eb|--------------------------------|--------------------------------|
0:28
Gb|----------------9---------------|
Db|-------------7h9----------------|
Ab|7-------------------------------|
Eb|--------------------------------|
0:34
Gb|----------------9---------------|
Db|-------------7h9----------------|
Ab|7-----------------------7---6---|
Eb|--------------------------------|
0:41
Gb|--------------------------------|
Db|--------------------------------|
Ab|4-------------------------------|
Eb|--------5-------7-----------8---|
0:47
Gb|--------------------------------|
Db|--------------------------------|
Ab|--------------------------------|
Eb|9-------6-------7---------------|
0:55
Gb|--------------------------------|
Db|-------------7h9----------------|
Ab|7---------------7---------------|
Eb|--------------------------------|
1:02
Gb|--------------------------------|
Db|-------------7h9----------------|
Ab|7---------------7-------7---6---|
Eb|--------------------------------|
1:08
Gb|--------------------------------|
Db|--------------------------------|
Ab|4-------------------------------|
Eb|--------5-------7-----------8---|
1:16
Gb|--------------------------------|
Db|--------------------------------|
Ab|--------------------------------|
Eb|9-------2-------7---------------|
1:21
Gb|--------------------------------|
Db|-------------7h9----------------|
Ab|7-------------------------------|
Eb|----------------0---------------|
1:27
Gb|--------------------------------|
Db|-------------7h9----------------|
Ab|7---------------------------7---|
Eb|----------------0---------------|
1:34
Gb|--------------------------------|
Db|--------------------------------|
Ab|----7-------7-------7-------7---|
Eb|0-0-----0-0-----0-0-----0-0-----|
1:39
Gb|--------------------------------|
Db|--------------------------------|
Ab|----7-------7-------7-------7---|
Eb|0-0-----0-0-----0-0-----0-0-----|
1:45
Gb|--------------------------------|
Db|--------------------------------|
Ab|----7-------7-------7-------7---|
Eb|0-0-----0-0-----0-0-----0-0-----|
1:51
Gb|--------------------------------|
Db|--------------------------------|
Ab|----7-------7-------788TT8877---|

0 reply
dotShinoda wrote on July 18 2012, 05:32 am

I have posted the correction above for the bars between 0:55 and 1:08

I want to post or [tab]
guest
You may want to rate the tab now too:
select rating
Please do not post tabs as comments. Select "correction" instead!