Oops, an error
Loading. Please wait.

Unnatural Selection Bass Tab

version 1
version 1

Interactive

by Muse
36,537 views 12 this week
2 commentsread comments
1 2 3 4 5
x 4
add to favorites
launch autoscroll
font size
0
reset
guitar tuner
Autoscroll
slow
fast
+/-
esc
set tempo
stop
Help us to improve Ultimate-Guitar.com Take our survey!
×
Author
Difficulty
Tuning
intermediate
D G C F A D
Unnatural Selection By MUSE
Tabbed By : Jeff Becker
e-mail:

Tuning:DGCF (1 step down)
This is a rough guide as this is based on a live recording before the official song is out.
Note counts may be off (ie: play 16x instead of 8)
INTRO
F|---------------------------------------------------------------------------|
C|--------------------------------------------------------------5----6-------|
G|------------------------8--8------------7---7------------------------------|
D|-------5555555555555555--5---5-55555555---5--5--55555555-0303--404---------|

Verse
F|---------------------------------------------------------------------------|
C|--------------------------------------------5-----6------------------------|
G|----------------3---345-3567-----------------------------------------------|
D|-------55555555---5----------00000000--303---404---------------------------|

Chorus
F|---2222-1111-22-44-55-99-1010101010101010------------------------------------|
C|------------------------------------------99999999---------------------------|
G|-----------------------------------------------------------------------------|
D|-----------------------------------------------------------------------------|

F|-9999-7777-99-77-55-44-55555555--------------------------------------------|
C|--------------------------------66666666--222222222------------------------|
G|----------------------------------------------------222222222--------------|
D|---------------------------------------------------------------------------|

F|-----------------------------------------------------------------------------|
C|-----------------------------------------------------------------------------|
G|-----------------------55555555------------------------33333333--------------|
D|---5-xxxxxxx------------------------3-xxxxxxx--------------------------------|

F|---------------------------------------------------------------------------|
C|---------------------------------------------------------------------------|
G|----------------------------------------------------------3333-------------|
D|-11111111-22222222-33333333-44444444-555555555-1111-3333-------------------|

Repeat Verse & Chorus

Breakdown
F|---------------------------------------------------------------------------|
C|---7-------------6-7-------------------------------------------------------|
G|----7-8-5-3-5-7------------------------------------------------------------|
D|---------------------------------------------------------------------------|

Repeat Chorus

End Riff
F|---------------------------------------------------------------------------|
C|--------7------------------------------------------------------------------|
G|------------8----8----7----6-----------------------------------------------|
D|-----55--55---55---55---55---55--------------------------------------------|
| /  slide up
| \  slide down
| h  hammer-on
| p  pull-off
| ~  vibrato
| +  harmonic
| x  Mute note
===============================================================================
Suggest correction
comments
print report bad tab
2 comments total.
0 reply
timcommenford 20 Sep 10, 2009 03:10 PM

wat do u play during de solo

0 reply
TheBassment 10 Sep 10, 2009 08:27 PM

the bass solo part is soooo wrong. This is what i have been playing....
(the number in parenthesis is how many times the note is played)

------------------------------------9(2)----------------------------------------------------------------------------------------------
-----------------------9(2)-10(2)-------12(8)--------10(4)--9(4)-10(2)--9(2)-----------------------------------------------------
--12(4)-11(4)-12(2)--------------------------10(8)----------------------------12(2)--11(2)--12(8)---7(8)---12(8)---7(8)-------
---------------------------------------------------------------------------------------------------------------------------------------

guest
You may want to rate the tab now too:
select rating
Wanna post a correction for this tab? Suggest correction