Oops, an error
Loading. Please wait.

Unnatural Selection Tab

version 1
version 1

Intro

Whole song

Interactive

by Muse
16,634 views 6 this week
1 commentread comment
1 2 3 4 5
excellent!
x 8
add to favorites
launch autoscroll
font size
0
reset
how to read this tab
guitar tuner
Tab Pro tools
  • play this tab
  • loop segment
  • change instrument
  • show fretboard
  • metronome
×
Best way to learn
"Unnatural Selection"
Autoscroll
slow
fast
+/-
esc
set tempo
stop
Contributor
Difficulty
Tuning
intermediate
D A D G B E
-------------------------------------------------------------------------------
                             UNNATURAL SELECTION - Muse
-------------------------------------------------------------------------------


Artist: Muse
Song: Unnatural Selection
Album: The Resistance (2009)

Tabbed by: freebird23
Email: bggergo@gmail.com

Tuning: Drop D

e----------------------------------------------------------------|
B----------------------------------------------------------------|
G----------------------------------------------------------------|
D----------------------------------------------------------------|
A-----------------------------------------------------------8--8-|
D 5-5-5-5-5-5-5-5-5-5-5-5-5-5-5-5-5-5-5-5-5-5-5-5-5-5-5-5-5--5---|

e---------------------------------------------------------------|
B---------------------------------------------------------------|
G---------------------------------------------------------------|
D---------------------------------------------------------------|
A---------------------------6--6--------------------------------|
D 5-5-5-5-5-5-5-5-5-5-5-5-5--5----------------------------------|


e---------------------------------------------------------------|
B---------------------------------------------------------------|
G---------------------------------------------------------------|
D-------3-4-----4-5---------------------------------------------|
A---------------------------------------------------------------|
D-3-0-3-----4-4------5-5-5-5-5-5-5-5-8-5-8-9-10-8-10-11-11h12---|

e---------------------------------------------------------------|
B---------------------------------------------------------------|
G---------------------------------------------------------------|
D-----------------------3-4----4-5------------------------------|
A---------------------------------------------------------------|
D-0-0-0-0-0-0-0-0-3-0-3-----4-4---------------------------------|

Cheers.

| /  slide up
| \  slide down
| h  hammer-on
| p  pull-off
| ~  vibrato
| +  harmonic
| x  Mute note
===============================================================================
comments
print report bad tab
1 comment total.
0 reply
felras wrote on January 22 2013, 09:53 am

Thanks! I can play it now.

I want to post or [tab]
guest
You may want to rate the tab now too:
select rating
Please do not post tabs as comments. Select "correction" instead!