Oops, an error
Loading. Please wait.

Unnatural Selection Bass Tab

version 2
version 2

Interactive

by Muse
30,759 views 12 this week
4 commentsread comments
1 2 3 4 5
accurate
x 11
add to favorites
launch autoscroll
font size
0
reset
guitar tuner
Tab Pro tools
  • play this tab
  • loop segment
  • change instrument
  • show fretboard
  • metronome
Autoscroll
slow
fast
+/-
esc
set tempo
stop
Contributor
Difficulty
Tuning
intermediate
D A D G B E
Tuning: D A D G
Tabbed by: James Colgan (jamescol89@hotmail.com)

Intro
G|---------------------------------|
D|---------------------------------|
A|---------------------------8---8-|
D|-5555555555555555555555555---5---|

G|-----------------------------------------------|
D|-----------------------------3-----3-4-----4-5-|
A|--------------6---6----------------------------|
D|-555555555555---5---55555555---0-3-----0-4-----|

Verse
G|---------------------------------------------------------| 
D|---------------------------------------3-----3-4-----4-5-| 
A|---------------------------------------------------------|
D|-55555555-8-5-8-9-10-8-10-11/12-000000---0-3-----0-4-----| x6

Chorus
G|----------------------------------------------------|
D|-5555-4444-55-77-88-1212--1313131313131313-77777777-|
A|----------------------------------------------------|
D|----------------------------------------------------|

G|-7777-5555-77-55-33-22-33333333--------------------------|
D|--------------------------------444444-55555555-0000000--|
A|---------------------------------------------------------|
D|---------------------------------------------------------|

G|---------------------------------------|
D|---------------------------------------|
A|-----------33333333-----------11111111-|
D|-5-xxxxxxx----------3-xxxxxxx----------|

G|-----------------------------------------------------------|
D|-----------------------------------------------------------|
A|---------------------------------------------------------1-|
D|-11111111-22222222-33333333-44444444-555555555-1111-3333---|

Verse
G|---------------------------------------------------------|
D|---------------------------------------3-----3-4-----4-5-|
A|---------------------------------------------------------|
D|-55555555-8-5-8-9-10-8-10-11/12-000000---0-3-----0-4-----| x6

Chorus
G|----------------------------------------------------|
D|-5555-4444-55-77-88-1212--1313131313131313-77777777-|
A|----------------------------------------------------|
D|----------------------------------------------------|

G|-7777-5555-77-55-33-22-33333333-------------------------|
D|--------------------------------444444-55555555-0000000-|
A|--------------------------------------------------------|
D|--------------------------------------------------------|

G|---------------------------------------|
D|---------------------------------------|
A|-----------33333333-----------11111111-|
D|-5-xxxxxxx----------3-xxxxxxx----------|

G|-----------------------------------------------------------|
D|-----------------------------------------------------------|
A|---------------------------------------------------------1-|
D|-11111111-22222222-33333333-44444444-555555555-1111-3333---|

Breakdown
G|-----------------|
D|-5-------------4-|
A|---5-6-3-1-4-5---|
D|-----------------| x10 - on 10th time hold on last 5 on A string leaving out 4 on D.

Chorus
G|----------------------------------------------------|
D|-5555-4444-55-77-88-1212--1313131313131313-77777777-|
A|----------------------------------------------------|
D|----------------------------------------------------|

G|-7777-5555-77-55-33-22-33333333------------------------------------------------------------|
D|--------------------------------444444-55555555-0000000------------------------------------|
A|-------------------------------------------------------------------------------------------|
D|--------------------------------------------------------55555555-00000000-55555555-0000000-|

G|---------------------------------------|
D|---------------------------------------|
A|-----------33333333-----------11111111-|
D|-5-xxxxxxx----------3-xxxxxxx----------|

G|------------------------------------------------------------------------------------------------|
D|------------------------------------------------------------------------------------------------|
A|--------------------------------------------------------1111-----------1111-----------1111-----1|
D|11111111-22222222-33333333-44444444-555555555-1111-3333------1111-3333------1111-3333------1-3--|

End Riff
G|-----------------------------|
D|-----------------------------|
A|----8----7---7----6----5---5-|
D|-55---55---5---55---55---5---| x8 - on 8th time replace last 5 on A string with 5 on low D.
comments
print report bad tab
4 comments total. Showing first comments.
+1 reply
Shayo wrote on September 20 2009, 01:19 pm

5 stars, definetely! I just think it sounds better when the first F in the verse is an octave lower.

G|---------------------------------------------------------|
D|---------------------------------------------3-4-----4-5-|
A|---------------------------------------------------------|
D|-55555555-8-5-8-9-10-8-10-11/12-000000-3-0-3-----0-4-----|

0 reply
muscles-89 wrote on September 24 2009, 02:58 pm

ye playing it now that seems right... thanks.

0 reply
madmike078 wrote on August 9 2010, 02:22 pm

http://www.youtube.com/watch?v=CgX8eF8glCU

you can see that the chorus is played different... or is it just me?

I want to post or [tab]
guest
You may want to rate the tab now too:
select rating
Please do not post tabs as comments. Select "correction" instead!