Oops, an error
Loading. Please wait.

Unnatural Selection Bass Tab

version 3
version 3

Interactive

by Muse
4,886 views 1 this week
no commentswrite comment
1 2 3 4 5
please rate
add to favorites
launch autoscroll
font size
0
reset
guitar tuner
Autoscroll
slow
fast
+/-
esc
set tempo
stop
Help us to improve Ultimate-Guitar.com Take our survey!
×
Author
Difficulty
Tuning
intermediate
D G C F A D
Unnatural Selection By Muse
Tabbed By: TJ McKinney

The other versions of this song are close but not exact. I'm sure that this version is 
correct. Please rate my tab!

Tuning is DGCF

Come in at 0:36
F|----------------|----------------|----------------|------------------|
C|----------------|----------------|----------------|------------------|
G|----------------|----------------|----------------|------------------|
D|5\--------------|----------------|----------------|------------------|

F|----------------|----------------|----------------|------------------|
C|----------------|----------------|----------------|--------5-6-----6-|
G|----------------|----------------|----------------|------------------|
D|----------------|----------------|----------------|3-0-3-------4-4---|

Verse
F|----------------|----------------|----------------|------------------|
C|7---------------|----------------|----------------|--------5-6-----6-|
G|--0-0-0-0-0-0-0-|3-0-3-4-5-3-5-6-|6-7-------------|------------------|
D|----------------|----------------|----0-0-0-0-0-0-|3-0-3-------4-4---| x6

Prechorus
F|14-14-14-14-13-13-13-13|14-14-16-16-17-17-21-21|19-19-19-19-19-19-19-19|
C|-----------------------|-----------------------|-----------------------|
G|-----------------------|-----------------------|-----------------------|
D|-----------------------|-----------------------|-----------------------|

F|-----------------------|17-17-17-17-16-16-16-16|17-17-16-16-14-14-13-13|
C|17-17-17-17-17-17-17-17|-----------------------|-----------------------|
G|-----------------------|-----------------------|-----------------------|
D|-----------------------|-----------------------|-----------------------|

F|14-14-14-14-14-14-14-14|-----------------------|-----------------------|
C|-----------------------|14-14-14-14-14-14-14-14|-----------------------|
G|-----------------------|-----------------------|12-12-12-12-12-12-12-12|
D|-----------------------|-----------------------|-----------------------|

F|-----------------------|
C|14-14-14-14-14-14-14-14|
G|-----------------------|
D|-----------------------|

Chorus
F|----------------|----------------|----------------|----------------|
C|----------------|----------------|----------------|----------------|
G|----------------|5555555555555555|----------------|3333333333333333|
D|5---------------|----------------|3---------------|----------------|

F|----------------|----------------|----------------|----------------|
C|----------------|----------------|----------------|----------------|
G|----------------|----------------|----------------|3---------------|
D|1111111122222222|3333333344444444|5555555511113333|--------------4-|

Verse
F|----------------|----------------|----------------|------------------|
C|----------------|----------------|----------------|--------5-6-----6-|
G|0-0-0-0-0-0-0-0-|3-0-3-4-5-3-5-6-|6-7-------------|------------------|
D|----------------|----------------|----0-0-0-0-0-0-|3-0-3-------4-4---| x6

Prechorus
F|14-14-14-14-13-13-13-13|14-14-16-16-17-17-21-21|19-19-19-19-19-19-19-19|
C|-----------------------|-----------------------|-----------------------|
G|-----------------------|-----------------------|-----------------------|
D|-----------------------|-----------------------|-----------------------|

F|-----------------------|17-17-17-17-16-16-16-16|17-17-16-16-14-14-13-13|
C|17-17-17-17-17-17-17-17|-----------------------|-----------------------|
G|-----------------------|-----------------------|-----------------------|
D|-----------------------|-----------------------|-----------------------|

F|14-14-14-14-14-14-14-14|-----------------------|-----------------------|
C|-----------------------|14-14-14-14-14-14-14-14|-----------------------|
G|-----------------------|-----------------------|12-12-12-12-12-12-12-12|
D|-----------------------|-----------------------|-----------------------|

F|-----------------------|
C|14-14-14-14-14-14-14-14|
G|-----------------------|
D|-----------------------|

Chorus
F|----------------|----------------|----------------|----------------|
C|----------------|----------------|----------------|----------------|
G|----------------|5555555555555555|----------------|3333333333333333|
D|5---------------|----------------|3---------------|----------------|

F|----------------|----------------|----------------|------------------|
C|----------------|----------------|----------------|------------------|
G|----------------|----------------|----------------|3-----------------|
D|1111111122222222|3333333344444444|5555555511113333|------------------|

Time signature change to 6/8
F|------------|------------|------------|------------|
C|7-----2-----|3-----0-----|------1-----|2-----6-----|
G|------------|------------|3-----------|------------|
D|------------|------------|------------|------------| x9

F|------------|------------|------------|------------|
C|7-----2-----|3-----0-----|------1-----|2-----------|
G|------------|------------|3-----------|------------|
D|------------|------------|------------|------------|

Back to 4/4
F|14-14-14-14-13-13-13-13|14-14-16-16-17-17-21-21|19-19-19-19-19-19-19-19|
C|-----------------------|-----------------------|-----------------------|
G|-----------------------|-----------------------|-----------------------|
D|-----------------------|-----------------------|-----------------------|

F|-----------------------|17-17-17-17-16-16-16-16|17-17-16-16-14-14-13-13|
C|17-17-17-17-17-17-17-17|-----------------------|-----------------------|
G|-----------------------|-----------------------|-----------------------|
D|-----------------------|-----------------------|-----------------------|

F|14-14-14-14-14-14-14-14|-----------------------|14-14-14-14-14-14-14-14|
C|-----------------------|14-14-14-14-14-14-14-14|-----------------------|
G|-----------------------|-----------------------|-----------------------|
D|-----------------------|-----------------------|-----------------------|

F|-----------------------|-----------------------|-----------------------|
C|14-14-14-14-14-14-14-14|-----------------------|-----------------------|
G|-----------------------|12-12-12-12-12-12-12-12|-----------------------|
D|-----------------------|-----------------------|12-12-12-12-12-12-12-12|

F|-----------------------|-----------------------|
C|-----------------------|-----------------------|
G|12-12-12-12-12-12-12-12|-----------------------|
D|-----------------------|12-12-12-12-12-12-12-12|

Final Chorus
F|----------------|----------------|----------------|----------------|
C|----------------|----------------|----------------|----------------|
G|----------------|5555555555555555|----------------|3333333333333333|
D|5---------------|----------------|3---------------|----------------|

F|----------------|----------------|----------------|----------------|
C|----------------|----------------|----------------|----------------|
G|----------------|----------------|----------------|33333333--------|
D|1111111122222222|3333333344444444|5555555511113333|--------11113333|

F|----------------|----------------|----------------|
C|----------------|----------------|----------------|
G|33333333--------|33333333--------|3---------------|
D|--------11113333|--------4---3---|--------------4-|

Outro
F|----------------|-----------------|----------------|-----------------|
C|----5-----4---4-|-----3-----2---2-|----5-----4---4-|-----3-----2---2-|
G|0-0---0-0---0---|-0-0---0-0---0---|0-0---0-0---0---|-0-0---0-0---0---|
D|----------------|-----------------|----------------|-----------------|x3

F|----------------|-----------------|----------------|-----------------|
C|----5-----4---4-|-----3-----2---2-|----5-----4---4-|-----------------|
G|0-0---0-0---0---|-0-0---0-0---0---|0-0---0-0---0---|-0-0-0-0-0-0-0-0-|
D|----------------|-----------------|----------------|-----------------|

F|----------------|-----------------|----------------|-------------------|
C|----------------|-----------------|----------------|-------------------|
G|0-0-3-0-0-2-0-2-|-0-0-1-0-0-0-0-0-|0-0-3-0-0-2-0-2-|-0-0-1-0-0-0-0-0---|
D|----------------|-----------^---^-|----------------|-----------^---^---|
                              |   | <-----accent these notes---->|  -----|
F|----------------|-----------------|----------------|-------------------|
C|----------------|-----------------|----------------|-------------------|
G|0-0-3-0-0-2-0-2-|-0-0-1-0-0-0-0-0-|0-0-3-0-0-2-0-2-|-0-0-1-0-0-0-0-0---|
D|----------------|-----------^---^-|----------------|-----------^-^-^---|
                              |   | <-----accent these notes---->| |-----|
Suggest correction
What's this?
You can suggest a correction to this tab. Community and Mods will review your correction and vote to approve or reject it.
comments
We did not receive enough feedback on this tab! Please rate:
print report bad tab
1 2 3 4 5
guest
You may want to rate the tab now too:
select rating
Please do not post tabs as comments. Select "correction" instead!