Oops, an error
Loading. Please wait.

Unnatural Selection Bass Tab

version 4
version 4

Interactive

by Muse
10,564 views 1 this week
1 commentread comment
1 2 3 4 5
accurate
x 3
add to favorites
launch autoscroll
font size
0
reset
guitar tuner
Autoscroll
slow
fast
+/-
esc
set tempo
stop
Help us to improve Ultimate-Guitar.com Take our survey!
×
Contributor
Difficulty
Tuning
bassisfun 426
intermediate
D G D G B D
upon further notice, the pre-chorus and chorus were written in the wrong octaves 
and I also made a few corrections so here it is again

G|--------------------------------|
D|--------------------------------|
G|0-0-0-0-0-0-0-0-0-0-0-0-0-0-0-0-|
D|--------------------------------|

G|----------------------------------|
D|----------------------------------|
G|0-0-0-0-0-0-0-0-0-0-0-0-0-10-0-10-|
D|----------------------------------|

G|--------------------------------|
D|--------------------------------|
G|0-0-0-0-0-0-0-0-0-0-0-0-0-8-0-8-|
D|--------------------------------|

G|--------------------------------|
D|----------------------3-4-----4-|
G|0-0-0-0-0-0-0-0-----------------|
D|----------------3-0-3-----4-4---|

Verse
G|--------------------------------|
D|5-------------------------------|_
G|--0-0-0-0-0-0-0-3-0-3-4-5-3-5-6-| |
D|--------------------------------| |
                                    | x6
G|--------------------------------| |
D|----------------------3-4-----4-|_|
G|6-7-----------------------------|
D|----0-0-0-0-0-0-3-0-3-----4-4---|

Pre-Chorus
G|------------------------------17-17-19-19-22-22|
D|20-20-20-20-19-19-19-19-20-20------------------|
G|-----------------------------------------------|
D|-----------------------------------------------|
	
G|20-20-20-20-20-20-20-20------------------------|
D|------------------------19-19-19-19-19-19-19-19|
G|-----------------------------------------------|
D|-----------------------------------------------|

G|19-19-19-19-17-17-17-17-19-19-17-17------------|
D|------------------------------------20-20-19-19|
G|-----------------------------------------------|
D|-----------------------------------------------|

G|-----------------------------------------------|
D|20-20-20-20-20-20-20-20-19-19-19-19-19-19-19-19|
G|-----------------------------------------------|
D|-----------------------------------------------|

G|--------------------------------|
D|8-8-8-8-8-8-8-8-7-7-7-7-7-7-7-7-|
G|--------------------------------|
D|--------------------------------|

Chorus
G|--------------------------------|
D|--------------------------------|
G|--------------------------------|
D|5~--5-5-5-5-5-5-5-5-5-5-5-5-5-5-|

G|--------------------------------|
D|--------------------------------|
G|5-5-5-5-5-5-5-5-5-5-5-5-5-5-5-5-|
D|--------------------------------|

G|--------------------------------|
D|--------------------------------|
G|--------------------------------|
D|3~--3-3-3-3-3-3-3-3-3-3-3-3-3-3-|

G|--------------------------------|
D|--------------------------------|
G|3-3-3-3-3-3-3-3-3-3-3-3-3-3-3-3-|
D|--------------------------------|

G|--------------------------------|
D|--------------------------------|
G|--------------------------------|
D|1-1-1-1-1-1-1-1-2-2-2-2-2-2-2-2-|

G|--------------------------------|
D|--------------------------------|
G|--------------------------------|
D|3-3-3-3-3-3-3-3-4-4-4-4-4-4-4-4-|

G|--------------------------------|---------------------------|
D|--------------------------------|---------------------------|
G|--------------------------------|3~-------------------------|
D|5-5-5-5-5-5-5-5-1---1-1-3---3-3-|---------------------------|

Verse
G|--------------------------------|
D|5-------------------------------|_
G|--0-0-0-0-0-0-0-3-0-3-4-5-3-5-6-| |
D|--------------------------------| |
                                    | x2
G|--------------------------------| |
D|----------------------3-4-----4-|_|
G|6-7-----------------------------|
D|----0-0-0-0-0-0-3-0-3-----4-4---|

G|--------------------------------|
D|5-------------------------------|
G|--0-0-0-0-0-0-0-3-x-x-x-x-x-x-x-|
D|--------------------------------|

G|--------------------------------|
D|----------------------3-4-----4-|
G|6-7-----------------------------|
D|----0-0-0-0-0-0-3-x-x-----x-x---|

G|--------------------------------|
D|5-------------------------------|
G|--0-0-0-0-0-0-0-3-x-x-x-x-x-x-x-|
D|--------------------------------|

G|--------------------------------|
D|----------------------3-4-----4-|
G|6-7-----------------------------|
D|----0-0-0-0-0-0-3-0-3-----4-4---|

G|--------------------------------|
D|5-------------------------------|_
G|--0-0-0-0-0-0-0-3-0-3-4-5-3-5-6-| |
D|--------------------------------| |
                                    | x2
G|--------------------------------| |
D|----------------------3-4-----4-|_|
G|6-7-----------------------------|
D|----0-0-0-0-0-0-3-0-3-----4-4---|

Pre-Chorus
G|------------------------------17-17-19-19-22-22|
D|20-20-20-20-19-19-19-19-20-20------------------|
G|-----------------------------------------------|
D|-----------------------------------------------|
	
G|20-20-20-20-20-20-20-20------------------------|
D|------------------------19-19-19-19-19-19-19-19|
G|-----------------------------------------------|
D|-----------------------------------------------|

G|19-19-19-19-17-17-17-17-19-19-17-17------------|
D|------------------------------------20-20-19-19|
G|-----------------------------------------------|
D|-----------------------------------------------|

G|-----------------------------------------------|
D|20-20-20-20-20-20-20-20-19-19-19-19-19-19-19-19|
G|-----------------------------------------------|
D|-----------------------------------------------|

G|--------------------------------|
D|8-8-8-8-8-8-8-8-7-7-7-7-7-7-7-7-|
G|--------------------------------|
D|--------------------------------|

Chorus
G|--------------------------------|
D|--------------------------------|
G|--------------------------------|
D|5~--5-5-5-5-5-5-5-5-5-5-5-5-5-5-|

G|--------------------------------|
D|--------------------------------|
G|5-5-5-5-5-5-5-5-5-5-5-5-5-5-5-5-|
D|--------------------------------|

G|--------------------------------|
D|--------------------------------|
G|--------------------------------|
D|3~--3-3-3-3-3-3-3-3-3-3-3-3-3-3-|

G|--------------------------------|
D|--------------------------------|
G|3-3-3-3-3-3-3-3-3-3-3-3-3-3-3-3-|
D|--------------------------------|

G|--------------------------------|
D|--------------------------------|
G|--------------------------------|
D|1-1-1-1-1-1-1-1-2-2-2-2-2-2-2-2-|

G|--------------------------------|
D|--------------------------------|
G|--------------------------------|
D|3-3-3-3-3-3-3-3-4-4-4-4-4-4-4-4-|

G|--------------------------------|---------------------------|
D|--------------------------------|---------------------------|
G|--------------------------------|3~-------------------------|
D|5-5-5-5-5-5-5-5-1---1-1-3---3-3-|---------------------------|

Bridge
G|--------------------------------|
D|5---------------------------4---|
G|----7---8---5-------6---7-------| x10
D|----------------8---------------|
                  ^this is the last note the tenth time

Pre-Chorus
G|------------------------------17-17-19-19-22-22|
D|20-20-20-20-19-19-19-19-20-20------------------|
G|-----------------------------------------------|
D|-----------------------------------------------|
	
G|20-20-20-20-20-20-20-20------------------------|
D|------------------------19-19-19-19-19-19-19-19|
G|-----------------------------------------------|
D|-----------------------------------------------|

G|19-19-19-19-17-17-17-17-19-19-17-17------------|
D|------------------------------------20-20-19-19|
G|-----------------------------------------------|
D|-----------------------------------------------|

G|-----------------------------------------------|
D|20-20-20-20-20-20-20-20-19-19-19-19-19-19-19-19|
G|-----------------------------------------------|
D|-----------------------------------------------|

G|--------------------------------|
D|8-8-8-8-8-8-8-8-7-7-7-7-7-7-7-7-|
G|--------------------------------|
D|--------------------------------|

Chorus
G|--------------------------------|
D|--------------------------------|
G|--------------------------------|
D|5~--5-5-5-5-5-5-5-5-5-5-5-5-5-5-|

G|--------------------------------|
D|--------------------------------|
G|5-5-5-5-5-5-5-5-5-5-5-5-5-5-5-5-|
D|--------------------------------|

G|--------------------------------|
D|--------------------------------|
G|--------------------------------|
D|3~--3-3-3-3-3-3-3-3-3-3-3-3-3-3-|

G|--------------------------------|
D|--------------------------------|
G|3-3-3-3-3-3-3-3-3-3-3-3-3-3-3-3-|
D|--------------------------------|

G|--------------------------------|
D|--------------------------------|
G|--------------------------------|
D|1-1-1-1-1-1-1-1-2-2-2-2-2-2-2-2-|

G|--------------------------------|
D|--------------------------------|
G|--------------------------------|
D|3-3-3-3-3-3-3-3-4-4-4-4-4-4-4-4-|

G|--------------------------------|---------------------------|
D|--------------------------------|---------------------------|
G|--------------------------------|3~-------------------------|
D|5-5-5-5-5-5-5-5-1---1-1-3---3-3-|---------------------------|

G|--------------------------------|---------------------------|
D|--------------------------------|---------------------------|
G|----------------3~--------------|----------------3~---------|
D|1---1-1-3---3-3-----------------|1---1-1-3---3-3------------|

G|---------------------------------|
D|---------------------------------|
G|0-0-10-0-0-9-0-9-0-0-8-0-0-7-0-7-| x4 hold last note last time
D|---------------------------------|    then slide down the neck

comments
We did not receive enough feedback on this tab! Please rate:
print report bad tab
1 2 3 4 5
1 comment total.
0 reply
BCarey2293 823 wrote on January 13 2010, 05:25 pm

G|---------------------------------------------------------|
D|----------3-4-------4-5----------------------------------|
G|------------------------0-0-0----------------------------|
D|---3-0-3-------3-4---------------------------------------|

I want to post or [tab]
guest
You may want to rate the tab now too:
select rating
Please do not post tabs as comments. Select "correction" instead!