Oops, an error
Loading. Please wait.

Unnatural Selection Bass Tab

version 5
version 5

Interactive

by Muse
4,867 views 3 this week
no commentswrite comment
1 2 3 4 5
accurate
x 3
add to favorites
launch autoscroll
font size
0
reset
guitar tuner
Autoscroll
slow
fast
+/-
esc
set tempo
stop
Help us to improve Ultimate-Guitar.com Take our survey!
×
Author
Difficulty
Tuning
4useless 2,774
intermediate
D A D G B E
Band: Muse
Song: Unnatural Selection
Album: The Resistance (2009)
Bassist: Chris Wolstenholme
Tuning: DADG and DGCF (below)


No bass till 0:46 

Verse:

G|----------------|
D|------3-4-----4-|
A|----------------|
D|3-0-3-----4-4---|

G|----------------|-------------------|------------------|----------------|
D|5---------------|-------------------|------------------|------3-4-----4-|
A|----------------|-------------------|------------------|----------------|
D|--5-5-5-5-5-5-5-|8-5-8-9-10-8-10-11-|11-12-0-0-0-0-0-0-|3-0-3-----4-4---|x6

Pre-chorus:

G|12(x4)-11(x4)-12(x2)-14(x2)-15(x2)-19(x2)-17(x8)--------|
D|-------------------------------------------------15(x8)-|
A|--------------------------------------------------------|
D|--------------------------------------------------------|

G|15(x4)-14(x4)-15(x2)-14(x2)-12(x2)-11(x2)-12(x8)-7(x8)-------------|
D|-------------------------------------------------------5(x8)-------|
A|-------------------------------------------------------------5(x8)-|
D|-------------------------------------------------------------------|

Chorus:

G|--------|--------|--------|--------|--------|--------|--------|--------|
D|--------|--------|--------|--------|--------|--------|--------|--------|
A|--------|--------|3~333333|33333333|--------|--------|1~111111|11111111|
D|5~xxxxxx|xxxxxxxx|--------|--------|3~xxxxxx|xxxxxxxx|--------|--------|

G|--------|--------|--------|--------|--------|--------|--------|--------|
D|--------|--------|--------|--------|--------|--------|--------|--------|
A|--------|--------|--------|--------|--------|--------|1~------|--------|
D|11111111|22222222|33333333|44444444|55555555|11113333|--------|-----x4~|

Verse (I squeezed it):

G|--------|-----------|----------|--------|
D|--------|-----------|----------|---34--4|
A|--------|-----------|----------|--------|
D|55555555|85891081011|1112000000|303--44-|

G|--------|-----------|----------|--------|
D|5-------|-----------|----------|---34--4|
A|--------|-----------|----------|--------|
D|-5555555|85891081011|1112000000|303--44-| x5

Pre-chorus:

G|12(x4)-11(x4)-12(x2)-14(x2)-15(x2)-19(x2)-17(x8)--------|
D|-------------------------------------------------15(x8)-|
A|--------------------------------------------------------|
D|--------------------------------------------------------|

G|15(x4)-14(x4)-15(x2)-14(x2)-12(x2)-11(x2)-12(x8)-7(x8)-------------|
D|-------------------------------------------------------5(x8)-------|
A|-------------------------------------------------------------5(x8)-|
D|-------------------------------------------------------------------|

Chorus:

G|--------|--------|--------|--------|--------|--------|--------|--------|
D|--------|--------|--------|--------|--------|--------|--------|--------|
A|--------|--------|3~333333|33333333|--------|--------|1~111111|11111111|
D|5~xxxxxx|xxxxxxxx|--------|--------|3~xxxxxx|xxxxxxxx|--------|--------|

G|--------|--------|--------|--------|--------|--------|--------|--------|
D|--------|--------|--------|--------|--------|--------|--------|--------|
A|--------|--------|--------|--------|--------|--------|--------|--------|
D|11111111|22222222|33333333|44444444|55555555|11113333|8~------|--------|


Middle part: (time signature changes to 3/4)

G|--------|--------|--------|--------|
D|--------|--------|--------|--------| 
A|10~-----|--------|--------|----9~--| 
D|----12~-|13~-10~-|8~--11~-|12~-----| Play this row till 5:18

G|--------|--------|--------|--------|
D|--------|--------|--------|--------|
A|10~-----|--------|--------|--------|
D|----12~-|13~-10~-|8~--11~-|12~-----|

Pre-chorus:

G|12(x4)-11(x4)-12(x2)-14(x2)-15(x2)-19(x2)-17(x8)--------|
D|-------------------------------------------------15(x8)-|
A|--------------------------------------------------------|
D|--------------------------------------------------------|

G|15(x4)-14(x4)-15(x2)-14(x2)-12(x2)-11(x2)-12(x8)-7(x8)-12(x8)-7(x8)|
D|-------------------------------------------------------------------|
A|-------------------------------------------------------------------|
D|-------------------------------------------------------------------|

G|------------|
D|5(x8)-------|
A|------5(x8)-|
D|------------| x2

Chorus:

G|--------|--------|--------|--------|--------|--------|--------|--------|
D|--------|--------|--------|--------|--------|--------|--------|--------|
A|--------|--------|3~333333|33333333|--------|--------|1~111111|11111111|
D|5~xxxxxx|xxxxxxxx|--------|--------|3~xxxxxx|xxxxxxxx|--------|--------|

G|--------|--------|--------|--------|--------|
D|--------|--------|--------|--------|--------|
A|--------|--------|--------|--------|--------|
D|11111111|22222222|33333333|44444444|55555555|

G|--------|--------|
D|--------|--------|
A|--------|1~111111|
D|11113333|--------| x3

G|--------|--------|--------|
D|--------|--------|--------|
A|--------|1~------|--------|
D|4~--3~--|--------|-----x4~|

Ending:

G|--------|--------|    |--------|--------|    |--------|---------|
D|--------|--------|    |--8--7-7|--6--5-5|    |--8--7-7|--6--555\|
A|--8--7-7|--6--5-5|    |--------|--------|    |--------|---------|  
D|55-55-5-|55-55-5-| x4 |55-55-5-|55-55-5-| x3 |55-55-5-|55-55----|

__________________________________________________________________________
Full Step Down


Verse: (0:46)

F|--------|
C|---56--6|
G|--------|
D|303--44-|

F|--------|-----------|----------|--------|
C|7-------|-----------|----------|---56--6|
G|--------|-----------|----------|--------|
D|-5555555|85891081011|1112000000|303--44-|

Pre-chorus:

F|14(x4)-13(x4)-14(x2)-16(x2)-17(x2)-21(x2)-19(x8)-12(x8)-|
C|--------------------------------------------------------|
G|--------------------------------------------------------|
D|--------------------------------------------------------|

F|17(x4)-16(x4)-17(x2)-16(x2)-14(x2)-13(x2)-14(x8)-9(x8)-14(x8)-9(x8)|
C|-------------------------------------------------------------------|
G|-------------------------------------------------------------------|
D|-------------------------------------------------------------------|

Chorus:

F|--------|--------|--------|--------|--------|--------|--------|--------|
C|--------|--------|--------|--------|--------|--------|--------|--------|
G|--------|--------|5~555555|55555555|--------|--------|3~333333|33333333|
D|5~xxxxxx|xxxxxxxx|--------|--------|3~xxxxxx|xxxxxxxx|--------|--------|

F|--------|--------|--------|--------|--------|--------|--------|--------|
C|--------|--------|--------|--------|--------|--------|--------|--------|
G|--------|--------|--------|--------|--------|--------|3~------|--------|
D|11111111|22222222|33333333|44444444|55555555|11113333|--------|------4~|

Bridge:

F|--------|--------|--------|--------|
C|--------|--------|--------|--------|
G|12~-----|--------|--------|----11~-|
D|----12~-|13~-10~-|8~--11~-|12~-----|

Last bars of chorus just before ending:

F|--------|--------|
C|--------|--------|
G|--------|3~333333|
D|11113333|--------| x3

F|--------|--------|--------|
C|--------|--------|--------|
G|--------|3~------|--------|
D|4~--3~--|--------|------4~|

Ending:

F|-----------------|----------------|
C|-----------------|----------------|
G|0-0-10-0-0-9-0-9-|0-0-8-0-0-7-0-7-|
D|-----------------|----------------| x4

F|-----------------|----------------|
C|----10-----9---9-|----8-----7---7-|
G|0-0----0-0---0---|0-0---0-0---0---|
D|-----------------|----------------| x3

F|-----------------|----------------|
C|----10-----9---9-|----8-----7-7-7\|
G|0-0----0-0---0---|0-0---0-0-------|
D|-----------------|----------------|

/  slide up
\  slide down
h  hammer-on
p  pull-off
~  let ring
Suggest correction new What's this?
You can suggest a correction to this tab. Community and Mods will review your correction and vote to approve or reject it.
comments
We did not receive enough feedback on this tab! Please rate:
print report bad tab
1 2 3 4 5
guest
You may want to rate the tab now too:
select rating
Please do not post tabs as comments. Select "correction" instead!