Oops, an error
Loading. Please wait.

Unnatural Selection Bass

version 6
version 6

Interactive

by Muse
21,949 views 60 this week
7 commentsread comments
1 2 3 4 5
x 19
add to favorites
×
Save as Personal and add changes to this tab that will be seen only by you. Learn more ›
×
You can save this tab as Personal to edit and correct it or add notes. All changes will be seen only by you. Learn more »
save as personal
new!
launch autoscroll
font size
0
reset
guitar tuner
backing track
0:00
0:00
Autoscroll
slow
fast
+/-
esc
set tempo
stop
Author
Difficulty
Tuning
intermediate
D G D G
(No bass until 0:43)
G|--------------------------------|
D|--------------------------------|
G|0-0-0-0-0-0-0-0-0-0-0-0-0-0-0-0-|
D|--------------------------------|

G|----------------------------------|
D|----------------------------------|
G|0-0-0-0-0-0-0-0-0-0-0-0-0-10-0-10-|
D|----------------------------------|

G|--------------------------------|
D|--------------------------------|
G|0-0-0-0-0-0-0-0-0-0-0-0-0-8-0-8-|
D|--------------------------------|

G|---------------------------------------------|
D|---------------------------------------------|
G|0-0-0-0-0-0-0-0------------------------------|
D|---------------------------------------------|

(This is where the Chris comes in)
G|-------------------------|
D|------3-4-----4-5--------|
G|-------------------------|
D|3-0-3-----3-4------------|

[Main Riff] (x6)
G|------------------------------------|
D|------------------------------------|
G|-0-0-0-0-0-0-0-3-0-3-4-5-3-5-6-6/7--|
D|------------------------------------|

G|-------------------------------------|
D|------------------3-4-----4-5--------|
G|-------------------------------------|
D|0-0-0-0-0-0-3-0-3-----3-4------------|

[Pre-Chorus]
G|------------------------------------------------19-19-|
D|17-17-17-17-16-16-16-16-17-17-17-17-19-19-20-20-------|
G|------------------------------------------------------|
D|------------------------------------------------------|

G|17-17-17-17-17-17-17-17\10-10-10-10-10-10-10-10-------|
D|------------------------------------------------------|
G|------------------------------------------------------|
D|------------------------------------------------------|

G|-------------------------------------------------------------------------|
D|20-20-20-20-19-19-19-19-20-20-19-19-17-17-16-16-17-17-17-17-17-17-17-17--|
G|-------------------------------------------------------------------------|
D|-------------------------------------------------------------------------|

G|----------------------------------------------------------------|
D|12-12-12-12-12-12-12-12-----------------------------------------|
G|------------------------12-12-12-12-12-12-12-12-7-7-7-7-7-7-7-7-|
D|----------------------------------------------------------------|

[Chorus]
G|--------------------------------|
D|--------------------------------|
G|--------------------------------|
D|5--5-5-5-5-5-5-5-5-5-5-5-5-5-5--|

G|--------------------------------|
D|--------------------------------|
G|5--5-5-5-5-5-5-5-5-5-5-5-5-5----|
D|--------------------------------|

G|--------------------------------|
D|--------------------------------|
G|--------------------------------|
D|3--3-3-3-3-3-3-3-3-3-3-3-3-3-3--|

G|--------------------------------|
D|--------------------------------|
G|3--3-3-3-3-3-3-3-3-3-3-3-3-3----|
D|--------------------------------|

G|--------------------------------|
D|--------------------------------|
G|--------------------------------|
D|1-1-1-1-1-1-1-1-2-2-2-2-2-2-2-2-|

G|--------------------------------|
D|--------------------------------|
G|--------------------------------|
D|3-3-3-3-3-3-3-3-4-4-4-4-4-4-4-4-|

(The F# at the end (fourth fret low D string) is played when Matt says Whoo!)
G|--------------------------------|---------------------------|
D|--------------------------------|---------------------------|
G|--------------------------------|3--------------------------|
D|5-5-5-5-5-5-5-5-1---1-1-3---3-3-|-------------------------4-|

[Main Riff] (x6) 
(There is no muting, the bass is too quiet to distinguish.)
G|------------------------------------|
D|------------------------------------|
G|-0-0-0-0-0-0-0-3-0-3-4-5-3-5-6-6/7--|
D|------------------------------------|

G|-------------------------------------|
D|------------------3-4-----4-5--------|
G|-------------------------------------|
D|0-0-0-0-0-0-3-0-3-----3-4------------|

[Pre-Chorus]
G|------------------------------------------------19-19-|
D|17-17-17-17-16-16-16-16-17-17-17-17-19-19-20-20-------|
G|------------------------------------------------------|
D|------------------------------------------------------|

G|17-17-17-17-17-17-17-17\10-10-10-10-10-10-10-10-------|
D|------------------------------------------------------|
G|------------------------------------------------------|
D|------------------------------------------------------|

G|-------------------------------------------------------------------------|
D|20-20-20-20-19-19-19-19-20-20-19-19-17-17-16-16-17-17-17-17-17-17-17-17--|
G|-------------------------------------------------------------------------|
D|-------------------------------------------------------------------------|

G|----------------------------------------------------------------|
D|12-12-12-12-12-12-12-12-----------------------------------------|
G|------------------------12-12-12-12-12-12-12-12-7-7-7-7-7-7-7-7-|
D|----------------------------------------------------------------|

[Chorus]
G|--------------------------------|
D|--------------------------------|
G|--------------------------------|
D|5--5-5-5-5-5-5-5-5-5-5-5-5-5-5--|

G|--------------------------------|
D|--------------------------------|
G|5--5-5-5-5-5-5-5-5-5-5-5-5-5----|
D|--------------------------------|

G|--------------------------------|
D|--------------------------------|
G|--------------------------------|
D|3--3-3-3-3-3-3-3-3-3-3-3-3-3-3--|

G|--------------------------------|
D|--------------------------------|
G|3--3-3-3-3-3-3-3-3-3-3-3-3-3----|
D|--------------------------------|

G|--------------------------------|
D|--------------------------------|
G|--------------------------------|
D|1-1-1-1-1-1-1-1-2-2-2-2-2-2-2-2-|

G|--------------------------------|
D|--------------------------------|
G|--------------------------------|
D|3-3-3-3-3-3-3-3-4-4-4-4-4-4-4-4-|

G|--------------------------------|---------------------------|
D|--------------------------------|---------------------------|
G|--------------------------------|3--------------------------|
D|5-5-5-5-5-5-5-5-1---1-1-3---3-3-|-------------------------4-|

[Bridge]
G|--------------------------------|
D|5---------------------------4---|
G|----7---8---5-------6---7-------| (x10)
D|----------------8---------------|

[Pre-Chorus]
G|------------------------------------------------19-19-|
D|17-17-17-17-16-16-16-16-17-17-17-17-19-19-20-20-------|
G|------------------------------------------------------|
D|------------------------------------------------------|

G|17-17-17-17-17-17-17-17\10-10-10-10-10-10-10-10-------|
D|------------------------------------------------------|
G|------------------------------------------------------|
D|------------------------------------------------------|

G|-------------------------------------------------------------------------|
D|20-20-20-20-19-19-19-19-20-20-19-19-17-17-16-16-17-17-17-17-17-17-17-17--|
G|-------------------------------------------------------------------------|
D|-------------------------------------------------------------------------|

G|-------------------------------------------------------------------------|
D|12-12-12-12-12-12-12-12-17-17-17-17-17-17-17-17-12-12-12-12-12-12-12-12--|
G|-------------------------------------------------------------------------|
D|-------------------------------------------------------------------------|

G|-------------------------------------------------------------------------|
D|-------------------------------------------------------------------------|
G|12-12-12-12-12-12-12-12-7-7-7-7-7-7-7-7-(x2)-----------------------------|
D|-------------------------------------------------------------------------|

[Chorus]
G|----------------------------------|
D|----------------------------------|
G|----------------------------------|
D|5--5-5-5-5-5-5-5-5-5-5-5-5-5-5----|

G|--------------------------------|
D|--------------------------------|
G|5--5-5-5-5-5-5-5-5-5-5-5-5-5----|
D|--------------------------------|

G|--------------------------------|
D|--------------------------------|
G|--------------------------------|
D|3--3-3-3-3-3-3-3-3-3-3-3-3-3-3--|

G|--------------------------------|
D|--------------------------------|
G|3--3-3-3-3-3-3-3-3-3-3-3-3-3----|
D|--------------------------------|

G|--------------------------------|
D|--------------------------------|
G|--------------------------------|
D|1-1-1-1-1-1-1-1-2-2-2-2-2-2-2-2-|

G|--------------------------------|
D|--------------------------------|
G|--------------------------------|
D|3-3-3-3-3-3-3-3-4-4-4-4-4-4-4-4-|

G|--------------------------------|---------------------------|
D|--------------------------------|---------------------------|
G|--------------------------------|3--------------------------|
D|5-5-5-5-5-5-5-5-1---1-1-3---3-3-|---------------------------|

G|--------------------------------|---------------------------|
D|--------------------------------|---------------------------|
G|----------------3---------------|-------3-------------------|
D|1---1-1-3---3-3-----------------|-4--3----------------------|

[Ending Breakdown] (x4)
G|---------------------------------|
D|---------------------------------|
G|0-0-10-0-0-9-0-9-0-0-8-0-0-7-0-7-|
D|---------------------------------|

[Final Breakdown]
G|---------------------------------------|
D|---------------------------------------|
G|0-0-15-0-0-14-0-14-0-0-13-0-0-12-0-12--|
D|---------------------------------------|

(The last 12's here are sixteenths played to the rhythm of Dom's snare.)
G|------------------------------------------------|
D|------------------------------------------------|
G|0-0-15-0-0-14-0-14-0-0-13-0-0-12-12-12-12-12-12-|
D|------------------------------------------------|

G|---------------------------------------|
D|---------------------------------------|
G|0-0-15-0-0-14-0-14-0-0-13-0-0-12-0-12--|
D|---------------------------------------|

G|----------------------------------------------|
D|----------------------------------------------|
G|0-0-15-0-0-14-0-14-0-0-13-0-0-12-12-12\-------|
D|----------------------------------------------|


************************************

| /  Slide up
| \  Slide down

************************************
Suggest correction
comments
print report bad tab
7 comments total. Showing first comments.
+1 reply
jpfleming 190 May 28, 2013 01:43 PM

Finally, somebody's tabbed it with the correct tuning!

+1 reply
Cheater349 238 Oct 30, 2013 07:26 AM

Nice, but I think the end of riff is

G|-------------------------------------|
D|------------------3-4-----4-5--------|
G|-------------------------------------|
D|0-0-0-0-0-0-3-0-3-----4-4------------|

0 reply
KingDavid31 10 Feb 16, 2015 06:53 PM

Hey, how did you use Dolby to extract parts of the song? Sounds interesting, I'm into that kind of stuff...

guest
You may want to rate the tab now too:
select rating
Wanna post a correction for this tab? Suggest correction