Oops, an error
Loading. Please wait.

Uno Bass Tab

version 3
version 3

Whole song

Interactive

by Muse
3,362 views 9 this week
no commentswrite comment
1 2 3 4 5
accurate
x 4
add to favorites
launch autoscroll
font size
0
reset
guitar tuner
Tab Pro tools
  • play this tab
  • loop segment
  • change instrument
  • show fretboard
  • metronome
Autoscroll
slow
fast
+/-
esc
set tempo
stop
Contributor
Band: Muse
Song: Uno
Album: Showbiz (1999)
Bassist: Chris Wolstenholme
Tuning: Standard

G|-----------|-----------|-----------|-----------|-----------|-----------|
D|-----------|-------2---|-------2---|-------2---|-------2---|-----1-4-1-|
A|-----------|-----2---2-|-----2---2-|-0-0-3---3-|-0-0-3---3-|-2-2-------|
E|----0/12\0-|-0-0-------|-000-------|-----------|-----------|-----------|

G|-----------|-----------|-----------|
D|-------2---|-------2---|------22---|
A|-000-3---3-|-----2---2-|-----2--22-|
E|-----------|-0-0-------|-000-------|

G|-----------|-----------|-----------|-----------|-----------|
D|-------2---|-------2---|-------2---|-------2---|-----1-4-1-|
A|-----2---2-|-----2---2-|-0-0-3---3-|-0-0-3---3-|-2-2-------|
E|-0-0-------|-000-------|-----------|-----------|-----------|

G|-----------|-----------|
D|-------2---|-----------|
A|-000-3---3-|-----------|
E|-----------|-0---------|

1:00 - 1:20 (no bass)

G|----------------|----------------|----------------|----------------|
D|----------14----|----------14----|----------14----|----------14----|
A|-------14----14-|-------14----14-|-12-12-15----15-|-12-12-15----15-|
E|-12-------------|-12-12----------|----------------|----------------|

G|----------11----|----------------|----------------|--------------------|
D|-------13----13-|----------14----|----------14----|--------------------|
A|-14-14----------|-12-12-15----15-|-------14----14-|--------------------|
E|----------------|----------------|-12-12----------|-12-x-x-0-12-0/12\0-|
                                                     play this bar softly

G|-----------|-----------|-----------|-----------|-----------|
D|-------2---|-------2---|-------2---|-------2---|-----1-4-1-|
A|-----2---2-|-----2---2-|-0-0-3---3-|-0-0-3---3-|-2-2-------|
E|-0-0-------|-000-------|-----------|-----------|-----------|

G|-----------|-----------|
D|-------2---|-----------|
A|-000-3---3-|-----------|
E|-----------|-0---------|

G|----------------|----------------|----------------|----------------|
D|----------14----|----------14----|----------14----|----------14----|
A|-------14----14-|-------14----14-|-12-12-15----15-|-12-12-15----15-|
E|-12-------------|-12-12----------|----------------|----------------|

G|----------11----|----------------|----------------|----------------|
D|-------13----13-|----------14----|----------14----|----------------|
A|-14-14----------|-12-12-15----15-|-------14----14-|----------------|
E|----------------|----------------|-12-12----------|-12-------------|

2:10 - 2:26 (no bass)

G|----------------|----------------|----------------|----------------|
D|----------14----|----------14----|----------14----|----------14----|
A|-------14----14-|-------14----14-|-12-12-15----15-|-12-12-15----15-|
E|-12-------------|-12-12----------|----------------|----------------|

G|----------11----|----------------|----------------|--------------------|
D|-------13----13-|----------14----|----------14----|--------------------|
A|-14-14----------|-12-12-15----15-|-------14----14-|--------------------|
E|----------------|----------------|-12-12----------|-12-x-x-7-7-8-12-12-|
                                                                 |
                               play last bar softly and bend this note 1/4

G|-----------|-----------|-----------|-----------|-----------|
D|-------2---|-------2---|-------2---|-------2---|-----1-4-1-|
A|-----2---2-|-----2---2-|-0-0-3---3-|-0-0-3---3-|-2-2-------|
E|-0-0-------|-000-------|-----------|-----------|-----------|

G|-----------|-----------|-----------|
D|-------2---|-------2---|------22---|
A|-000-3---3-|-----2---2-|-----2--22-|
E|-----------|-0-0-------|-000-------|

G|-----------|-----------|-----------|-----------|-----------|
D|-------2---|-------2---|-------2---|-------2---|-----1-4-1-|
A|-----2---2-|-----2---2-|-0-0-3---3-|-0-0-3---3-|-2-2-------|
E|-0-0-------|-000-------|-----------|-----------|-----------|

G|-----------|-----------|----------------------------|
D|-------2---|-------2---|----------------------------|
A|-000-3---3-|-----2---2-|----------------------------|
E|-----------|-0-0-------|-12-121212-12-12-1212121212-|
                             play this bar softly

G|-----------|-----------|-----------|-----------|-----------|
D|-------2---|-------2---|-------2---|-------2---|-----1-4-1-|
A|-----2---2-|-----2---2-|-0-0-3---3-|-0-0-3---3-|-2-2-------|
E|-0-0-------|-000-------|-----------|-----------|-----------|

G|-----------|-----------|-----------|
D|-------2---|-------2---|-----------|
A|-000-3---3-|-----2---2-|-----------|
E|-----------|-0-0-------|-0~--------|

/  slide up
\  slide down
h  hammer-on
p  pull-off
~  let ring
comments
print report bad tab
I want to post or [tab]
guest
You may want to rate the tab now too:
select rating
Please do not post tabs as comments. Select "correction" instead!