Oops, an error
Loading. Please wait.

Uno Tab

version 3
version 3

Whole song

Interactive

by Muse
46,856 views 78 this week
7 commentsread comments
1 2 3 4 5
x 17
add to favorites
launch autoscroll
font size
0
reset
how to read this tab
guitar tuner
Autoscroll
slow
fast
+/-
esc
set tempo
stop
Help us to improve Ultimate-Guitar.com Take our survey!
×
Author
Muse - Uno

Any comments, questions or queries then mail me at ruled_by_secrecy_6@hotmail.com

This version is a mix of the Hullabaloo and studio versions, the way I like to play it.

[Intro]
(a load of crazy pick scraping, it's impossible to tab. Just go mental.)

e|------------------------------|
B|-8-7-7-8-7-7-8--8-7-7-8-7-7-8-|
G|-9-9-9-9-9-9-9--9-9-9-9-9-9-9-|
D|------------------------------|
A|------------------------------|
E|------------------------------|(x2)

e|------------------------------|
B|-8-7-7-8-7-7-8--8-7-7-8-7-7-8-|
G|-8-8-8-8-8-8-8--8-8-8-8-8-8-8-|
D|------------------------------|
A|------------------------------|
E|------------------------------|

e|---------------|
B|-8-7-7-8-7-7-8-|
G|-9-9-9-9-9-9-9-|
D|---------------|
A|---------------|
E|---------------|

Transition to the next part
e|---------------------------------|
B|-8-8-8-8-10-10-10-10-10-10-10-10-|
G|-9-9-9-9-9--9--9--9--9--9--9--9--|
D|---------------------------------|
A|---------------------------------|
E|---------------------------------|

The next part is quite tricky until you master the picking pattern. TP all the notes on
theB string but not the ones on the G.
e|----------------------|
B|-11-10---11-10---10---|
G|-------9-------9----9-|
D|----------------------| 
A|----------------------|
E|----------------------|(x4)

e|----------------------|
B|-11-10---11-10---10---|
G|-------8-------8----8-|
D|----------------------| 
A|----------------------|
E|----------------------|(x2)

e|----------------------|
B|-11-10---11-10---10---|
G|-------9-------9----9-|
D|----------------------|
A|----------------------|
E|----------------------|

[Verse]
You are...
e|-----------------|
B|---------0-------|
G|-----0-----0---0-|
D|---2---2-----2---| 
A|-2---------------|
E|-----------------|(x2)

e|-----------------|
B|---------1-------|
G|-----2-----2---2-|
D|---2---2-----2---|
A|-0---------------|
E|-----------------|(x2)

e|---------2-------|
B|-----------0-----|
G|-----2-------2---|
D|---1---1-------1-|
A|-2---------------|
E|-----------------|(x2)

e|---------------------|
B|---------0-----------|
G|-----0-----0---0-----|
D|---2---2-----2----*2-|
A|-2----------------*2-|
E|------------------*0-|
*Use a really harsh upstroke and don't let the chord ring.

Listen to the Hullabaloo version for the rhythm of this part.
e|--12--12--|    |--12--12--|    |--14--14--| |--12--12--| |--12--12--|
B|--12--12--|    |--13--13--|    |--12--12--| |--13--13--| |--12--12--|
G|--12--12--| x2 |--14--14--| x2 |--14--14--| |--14--14--| |--12--12--|
D|----------|    |----------|    |----------| |----------| |----------|
A|----------|    |----------|    |----------| |----------| |----------|
E|----------|    |----------|    |----------| |----------| |----------|

[Chorus]
e|-------------------------|-------------------------|
B|-------------------------|-------------------------|
G|-9-9-9-9-x-9-9-x-9-x-9-7-|-9-9-9-9-x-9-9-x-9-x-9-7-|
D|-x-x-x-x-x-x-x-x-x-x-x-x-|-x-x-x-x-x-x-x-x-x-x-x-x-|
A|-7-7-7-7-x-7-7-x-7-x-7-5-|-7-7-7-7-x-7-7-x-7-x-7-5-|
E|-------------------------|-------------------------|

e|---------------------|-----------------------------|
B|---------------------|-----------------------------|
G|-9-9-9-9-5-9-9-9-9-7-|-9-9-9-9-9-9-9-9-9-9-9-9-8-8-|
D|-x-x-x-x-x-x-x-x-x-x-|-x-x-x-x-x-x-x-x-x-x-x-x-x-x-|
A|-7-7-7-7-3-7-7-7-7-5-|-7-7-7-7-7-7-7-7-7-7-7-7-6-6-|
E|---------------------|-----------------------------|

e|-------------------------|-------------------------|-0----(0)\----|
B|-------------------------|-------------------------|-0----(0)\----|
G|-8-8-8-x-8-8-8-8-8-8-x-x-|-5-5-5-5-5-5-5-5-5-5-5-5-|-0----(0)\----|
D|-x-x-x-x-x-x-x-x-x-x-x-x-|-x-x-x-x-x-x-x-x-x-x-x-x-|-2----(2)\----|
A|-6-6-6-x-6-6-6-6-6-6-x-x-|-3-3-3-3-3-3-3-3-3-3-3-3-|-2----(2)\----|
E|-------------------------|-------------------------|-0----(0)\----|

[Solo]
e|-------------------------------------------------------------------------------|
B|-------------------------------------------------------------------------------|
G|-------------------------------------------------------------------------------|
D|-------------------------------------------------------------------------------|
A|-h4p0-h4p0-h3p0-h3p0-h2p0-h2p0-h2p0----h2p0-h2p0-h2p0-h2p0-h2p0-h2p0-h2p0-h2p0-|
E|------------------------------------h3-----------------------------------------|

e|---------------------------------------------------------------------------------|
B|---------------------------------------------------------------------------------|
G|---------------------------------------------------------------------------------|
D|---------------------------------------------------------------------------------|
A|---------------------------------------------------------------------------------|
E|-h2p0-h2p0-h3p0-h3p0-h2p0-h2p0-h2p0-h3p0-h2p0-h2p0-h2p0-h2p0-h2p0-h2p0-h2p0-h2p0-|

Not too sure about the end bit, it's the one off Hullabaloo
e|-------------------------------------------------------------4-----3--------------------*0-|
B|---------------------------------------------------------------------------2b3----------*0-|
G|-----------------------------------------------------------4---4-3---3-2---2b3-0-0h2p0--*1-|
D|----------------------------------------------------------------------------------------*2-|
A|-h4p0-h4p0-h3p0-h3p0-h2p0-h2p0-h2p0----h2p0-h2p0-h2p0-h2p0------------------------------*2-|
E|------------------------------------h3--------------------------------------------------*0-|
*don't let the chord ring

 For the rest of the song just repeat from the verse. After the second chorus instead of 
 the final chord go into-
e|---------------------------------|-------------------------------|
B|---------------------------------|-------------------------------|
G|-4-4-4-4-4-x-4-4-4-4-4-x-4-4-4-4-|-4-4-4-4-4-4-4-4-4-4-7---------|
D|-x-x-x-x-x-x-x-x-x-x-x-x-x-x-x-x-|-x-x-x-x-x-x-x-x-x-x-x---------|
A|-2-2-2-2-2-x-2-2-2-2-2-x-2-2-2-2-|-2-2-2-2-2-2-2-2-2-2-5---------|
E|---------------------------------|-----------------------3b4-(3)-|

 [Outro]
e|---0-0-0-0-0-0-0-0-0-0-----|----0-0-0-0-0-----0-----|
B|---0-0-0-0-0-0-0-0-0-0-----|----0-0-0-0-0-----0-----|
G|---0-0-0-0-0-0-0-0-0-0-0-0-|----0-0-0-0-0-0-0-0-0-0-|
D|---2-2-2-2-2-2-2-2-2-2-0-0-|----2-2-2-2-2-0-0-2-0-0-|
A|---------------------------|------------------------|
E|-0-------------------------|-0----------------------|

e|-----------0-----0-0-0-|-------0-0-0-0-0-0-0-0-|
B|---------1-------1-1-1-|-------1-1-1-1-1-1-1-1-|
G|---2-2-2-----2-2-2-2-2-|-------2-2-2-2-2-2-2-2-|
D|---2-2-2-----2-2-2-2-2-|-2-2-2-----2-2-2-2-2-2-|
A|-0-0-0-0---------------|-0-0-0-----------------|
E|-----------------------|-----------------------|

e|-------2-(2)---2--|-------0-0-0-0--|
B|-------0-(0)---0--|-------1-1-1-1--|
G|-2-2-2-------2----|-------2-2-2-2--|
D|-1-1--------------|-2-2-2-2-2-2-2--|
A|-2-2--------------|-0-0-0----------|
E|------------------|----------------|

e|-------0-0-0-0-0-0-|-0-----------------|
B|-------0-0-0-0-0-0-|-0---11-0-11-0-11--|
G|-------0-0-0-0-0-0-|-0-----------------|
D|-2-2-2-2-2-2-2-2-2-|-2-----------------|
A|-2-2-2-------------|-------------------|
E|-0-0-0-------------|-------------------|
TP                        ____________

Just like the intro part, TP on the B string but no on the G.
e|----------------------|
B|-11-10---11-10---10---|
G|-------9-------9----9-|
D|----------------------| 
A|----------------------|
E|----------------------|(x4)

e|----------------------|
B|-11-10---11-10---10---|
G|-------8-------8----8-|
D|----------------------| 
A|----------------------|
E|----------------------|(x2)

e|----------------------|-0>------------|
B|-11-10---11-10---10---|-0>------------|
G|-------9-------9----9-|-0>------------|
D|----------------------|-2>------------|
A|----------------------|-2>------------|
E|----------------------|-0>------------|



************************************

| 2bX - Bend to the pitch of x
| x - Dead note
| TP - Tremolo Picking
| \ - Slide down
| (0) - Optional note/chord
| > - Let ring

************************************
Suggest correction
comments
print report bad tab
7 comments total. Showing first comments.
0 reply
Big Al 10 Jul 20, 2006 08:15 AM

gd tab m8, the hullabulo version is amazin!

0 reply
Matt.Bellamy 10 Apr 03, 2007 08:58 AM

I've never heard the hullabaloo version, it's not on the cd :/ where can i hear it?

0 reply
Gu1T@r_H3r0 729 Jun 18, 2007 01:34 PM

It can be found on the Hullabaloo DVD mate.

guest
You may want to rate the tab now too:
select rating
Wanna post a correction for this tab? Suggest correction