Oops, an error
Loading. Please wait.

Unsustainable Bass Tab

version 1
version 1

Whole song

Interactive

by Muse
1,554 views 1 this week
no commentswrite comment
1 2 3 4 5
2 more votes to show rating
add to favorites
launch autoscroll
font size
0
reset
guitar tuner
Autoscroll
slow
fast
+/-
esc
set tempo
stop
Help us to improve Ultimate-Guitar.com Take our survey!
×
Song- Unsustainable                                  /= Slide Down Fretbaord
Album- The 2nd Law                                    
Bassist- Chris Wolstenholme                          ^= Bend String Upwards

Tuning- (EADG)

No bass till 1:28

At 1:28 the bass kicks in- 


When Vocals come in with 'UNSUSTAINABLE' and the dupstepy bit kicks in.

G|--------------------------------|--------------------------------|
D|--------------------------------|--------------------------------|
A|-----12/-----------12/----------|-12/--12-12-12^-13-13-13^-13^13^|
E|--------------------------------|--------------------------------|  X4


Then- (You'll have to listen to the song to get an idea of the rythym of the bass part here)

G|--------------------------------|--------------------------------|
D|--------------------------------|--------------------------------|
A|-----12-12-12-12-12-12-12-12----12-12-12-12-12-12-12-------------|
E|--------------------------------|--------------------------------|


G|--------------------------------|--------------------------------|
D|--------------------------------|--------------------------------|
A|--------------------------------|--------------------------------|
E|-----13-13-13-13-13-13-13-13----13-13-13-13-13-13-13-------------|


G|--------------------------------|--------------------------------|
D|--------------------------------|--------------------------------|
A|--------------------------------|--------------------------------|
E|-----10-10-10-10-10-10-10-10----10-10-10-10-10-10-10-------------|


G|--------------------------------|--------------------------------|
D|--------------------------------|--------------------------------|
A|--------------------------------|--------------------------------|
E|-----12-12-12-12-12-12-12-12----0-0-0-0-0-0-0--------------------|  X4

Rest from 2:55 - 3:16

At 3:16 Play


G|--------------------------------|--------------------------------|
D|--------------------------------|--------------------------------|
A|-----12/-----------12/----------|-12/--12-12-12^-13-13-13^-13^13^|
E|--------------------------------|--------------------------------| X3


Then Finish on-

G|--------------------------------|--------------------------------|
D|--------------------------------|--------------------------------|
A|-----12/-----------12/----------|-------------5-5-5-5-5-5/-------|
E|--------------------------------|--------------------------------|
Suggest correction
Give kudos to tab author, rate the tab!
1 2 3 4 5
comments
print report bad tab
guest
You may want to rate the tab now too:
select rating
Wanna post a correction for this tab? Suggest correction