Oops, an error
Loading. Please wait.
We have an official Uprising tab made by UG professional guitarists. Check out the tab »
×
163,512 views 216 this week
2 commentsread comments
1 2 3 4 5
x 12
add to favorites
launch autoscroll
font size
0
reset
guitar tuner
backing track
0:00
0:00
×
Best way to learn
"Uprising"
Autoscroll
slow
fast
+/-
esc
set tempo
stop
The entire song is pretty much this one octave pattern repeated all the way through, 
to the song for the rhythm but imagine the lower note is a quarter note and the higher note 
an eighth note and the song is going at 192 BPM.

there are L's in place of some notes, those indicate that you tie it to the previous 
(I write this along with the rest of the song in Guitar Pro so the measures are correct in 
of duration.

G|-------7-------7-------|--7-------7-------7-----|-----7-------7-------7--|
D|-----------------------|------------------------|------------------------|
A|--5-------5-------5----|-----5-------5-------5--|--L-----5-------5-------|
E|-----------------------|------------------------|------------------------|

G|-------7-------7-------|--7-------7-------7-----|-----7-------7-------7--|
D|-----------------------|------------------------|------------------------|
A|--5-------5-------5----|-----5-------5-------5--|--L-----5-------5-------|
E|-----------------------|------------------------|------------------------|

G|-------7-------7-------|--7-------7-------7-----|-----7-------7-------7--|
D|-----------------------|------------------------|------------------------|
A|--5-------5-------5----|-----5-------5-------5--|--L-----5-------5-------|
E|-----------------------|------------------------|------------------------|

G|--------12--------12--------|--12--------12-------10-----|
D|----------------------------|----------------------------|
A|--10--------10--------10----|------10--------8--------8--|
E|----------------------------|----------------------------|

G|-----10-------10-------10--|--------14--------14--------|
D|---------------------------|----------------------------|
A|--L------8--------8--------|--12--------12--------12----|
E|---------------------------|----------------------------|

G|--14--------14--------14------|-----14--------14--------14--|
D|------------------------------|-----------------------------|
A|------12--------12--------12--|--L------12--------12--------|
E|------------------------------|-----------------------------|

G|--------12--------12--------|--12--------12-------10-----|
D|----------------------------|----------------------------|
A|--10--------10--------10----|------10--------8--------8--|
E|----------------------------|----------------------------|

G|-----10-------6-------6--|-------7-------7-------|--7-------7-------7-----|
D|-------------------------|-----------------------|------------------------|
A|--L------4-------4-------|--5-------5-------5----|-----5-------5-------5--|
E|-------------------------|-----------------------|------------------------|

G|-----7-------7-------7--|--------12--------12--------|
D|------------------------|----------------------------|
A|--L-----5-------5-------|--10--------10--------10----|
E|------------------------|----------------------------|

G|--12--------12-------10-----|-----10--------13--------13--|
D|----------------------------|-----------------------------|
A|------10--------8--------8--|--L------11--------11--------|
E|----------------------------|-----------------------------|

G|--------14--------14--------|--14--------14--------14------|
D|----------------------------|------------------------------|
A|--12--------12--------12----|------12--------12--------12--|
E|----------------------------|------------------------------|

G|-----14--------14--------14--|--------12--------12--------|
D|-----------------------------|----------------------------|
A|--L------12--------12--------|--10--------10--------10----|
E|-----------------------------|----------------------------|

G|--12--------12-------10-----|-----10-------6-------6--|-------7-------7-------|
D|----------------------------|-------------------------|-----------------------|
A|------10--------8--------8--|--L------4-------4-------|--5-------5-------5----|
E|----------------------------|-------------------------|-----------------------|
Suggest correction
comments
print report bad tab
2 comments total.
+3 reply
AdioBam 41 Aug 06, 2009 04:14 PM

it's good, you've got the basics, but you're missing just a little bit. there's this part at about 4:01 that you don't have. it looks like chris is doing some hammer-ons or something. it's just a small section but it's still big enough to be crucial to the song.

+3 reply
jodo4 10 Aug 07, 2009 08:33 AM

Whoops! sorry about that, here is that fill that you're talking about at the end of Matt's solo, I forgot to take it out of my Guitar Pro tab

--5h--7--7--7--7--7--7--7--|--7--7--7--7--7--5h--7--7--|
---------------------------|---------------------------|
---------------------------|---------------------------|
---------------------------|---------------------------|

--5h--7--7--5-----5--------|
---------------7-----7--5--|
---------------------------|
---------------------------|

After that, you just pick up on the regular pattern again!

guest
You may want to rate the tab now too:
select rating
Wanna post a correction for this tab? Suggest correction