Oops, an error
Loading. Please wait.

Uprising Tab

by Muse
12,621 views 6 this week
6 commentsread comments
1 2 3 4 5
accurate
x 9
add to favorites
launch autoscroll
font size
0
reset
how to read this tab
guitar tuner
Autoscroll
slow
fast
+/-
esc
set tempo
stop
Help us to improve Ultimate-Guitar.com Take our survey!
×
Author
Difficulty
intermediate
-------------------------------------------------------------------------------
                             Uprising - Muse - The Resistance
-------------------------------------------------------------------------------
Tabbed by:minimattako
Email:mattakumomo@hotmail.co.uk

Hey, this is my first tab.


**********IMPORTANT***********

This is the correct tuning (the one Matt uses). You can work it out from live videos on youtube:

Tuning:DGDGBE (Drop D, and lower the A string a tone down to G!)

*******************************


Intro: (Synth Riff written for guitar)
e|--17~-----------------------17~----------18~--20-17~----------|
B|------18~----------------------17~-14~------------------------|
G|---------14~-15~--17-14~--------------14~---------------------|
D|--------------------------------------------------------------|
A|--------------------------------------------------------------|
E|--------------------------------------------------------------|
####
e|--17---------------------17-----18~~--17p15h17~---------------|
B|------18--15-----15--18-----15--------------------------------|
G|--------------14----------------------------------------------|
D|--------------------------------------------------------------|
A|--------------------------------------------------------------|
E|--------------------------------------------------------------|

e|--17---------------------17-----15~~--13p12h13~---------------|
B|------17--14-----14--17---------------------------------------|
G|--------------14------------14--------------------------------|
D|--------------------------------------------------------------|
A|--------------------------------------------------------------|
E|--------------------------------------------------------------|

e|--------------------------------------------------------------|
B|-----15-----15------------------------------------------------|
G|-----17b19--17b19---------------------------------------------|
D|--------------------------------------------------------------|
A|--------------------------------------------------------------|
E|--------------------------------------------------------------|


Verse 1: (No guitar except 'So come on!' wail bits)
e|-------------------------------------------------------|
B|-----15-----15-----------------------------------------|
G|-----17b19--17b19--------------------------------------|
D|-------------------------------------------------------| x2
A|-------------------------------------------------------|
E|-------------------------------------------------------|


Chorus 1: (Play intro synth riff)


Verse 2:
e|----------------|----------------|
B|-----------(build up)------------|
G|7-7---7-7-7---7-|7-7---7-7-7---7-|
D|----------------|----------------|
A|7-7---7-7-7---7-|7-7---7-7-7---7-|
D|----------------|----------------|

'Interchanging mind control...'
e|----------------|----------------|----------------|----------------|
B|----------------|----------------|----------------|----------------|
G|7-7---7-7-7---7-|7-7---7-7-7-7-7-|7-7---7-7-7---7-|5-5---5-5-5-5-5-|
D|----------------|----------------|----------------|----------------|
A|7-7---7-7-7---7-|7-7---7-7-7-7-7-|7-7---7-7-7---7-|5-5---5-5-5-5-5-|
D|----------------|----------------|----------------|----------------|

e|----------------|----------------|----------------|--------------------------------|
B|----------------|----------------|----------------|------------15----15------------|
G|6-6---6-6-6---6-|6-6---6-6-6-6-6-|7-7---7-7-7---7-|7-7---7-7---17b19-17b19---------|
D|----------------|----------------|----------------|--------------------------------|
A|6-6---6-6-6---6-|6-6---6-6-6-6-6-|7-7---7-7-7---7-|7-7---7-7-----------------------|
D|----------------|----------------|----------------|--------------------------------|

'Rise up and take...'
e|----------------|----------------|----------------|----------------|
B|----------------|----------------|----------------|----------------|
G|7-7---7-7-7---7-|7-7---7-7-7-7-7-|7-7---7-7-7---7-|5-5---5-5-5-5-5-|
D|----------------|----------------|----------------|----------------|
A|7-7---7-7-7---7-|7-7---7-7-7-7-7-|7-7---7-7-7---7-|5-5---5-5-5-5-5-|
D|----------------|----------------|----------------|----------------|

e|----------------|----------------|----------------|--------------------------------|
B|----------------|----------------|----------------|------------15----15------------|
G|6-6---6-6-6---6-|6-6---6-6-6-6-6-|7-7---7-7-7---7-|7-7---7-7---17b19-17b19---------|
D|----------------|----------------|----------------|--------------------------------|
A|6-6---6-6-6---6-|6-6---6-6-6-6-6-|7-7---7-7-7---7-|7-7---7-7-----------------------|
D|----------------|----------------|----------------|--------------------------------|

e|----------------|----------------|----------------|----------------|
B|----------------|----------------|----------------|----------------|
G|-------7-7--7-7-|7---7-7---7-7-7-|-------7-7--7-7-|7---7-7---7-7-7-|
D|----------------|----------------|----------------|----------------|
A|-------7-7--7-7-|7---7-7---7-7-7-|-------7-7--7-7-|7---7-7---7-7-7-|
D|----------------|----------------|----------------|----------------|

Chorus 2:
e|5-5---5-5-5---5-|5-5---5-5-5-5-5-|6-6---6-6-6---6-|5-5---5-5-5-5-5-|
B|6-6---6-6-6---6-|6-6---6-6-6-6-6-|8-8---8-8-8---8-|6-6---6-6-6-6-6-|
G|7-7---7-7-7---7-|7-7---7-7-7-7-7-|7-7---7-7-7---7-|5-5---5-5-5-5-5-|
D|7-7---7-7-7---7-|7-7---7-7-7-7-7-|8-8---8-8-8---8-|----------------|
A|----------------|----------------|----------------|----------------|
D|----------------|----------------|----------------|----------------|

e|5-5---5-5-5---5-|5-5---5-5-5-5-5-|6-6---6-6-6---6-|5-5-------------|
B|5-5---5-5-5---5-|5-5---5-5-5-5-5-|8-8---8-8-8---8-|6-6-----5-5-5---|
G|6-6---6-6-6---6-|6-6---6-6-6-6-6-|7-7---7-7-7---7-|5-5-----6-6-6---|
D|7-7---7-7-7---7-|7-7---7-7-7-7-7-|8-8---8-8-8---8-|--------7-7-7---|
A|----------------|----------------|----------------|--------6-6-6---|
D|----------------|----------------|----------------|----------------|

e|5-5---5-5-5---5-|5-5---5-5-5-5-5-|6-6---6-6-6---6-|5-5-------------|
B|6-6---6-6-6---6-|6-6---6-6-6-6-6-|8-8---8-8-8---8-|6-6---6-6-6-6-6-|
G|7-7---7-7-7---7-|7-7---7-7-7-7-7-|7-7---7-7-7---7-|5-5---7-7-7-7-7-|
D|7-7---7-7-7---7-|7-7---7-7-7-7-7-|8-8---8-8-8---8-|------6-6-6-6-6-|
A|----------------|----------------|----------------|----------------|
D|----------------|----------------|----------------|----------------|

e|5-5---5-5-5---5-|5-5---5-5-5-5-x-|6-6---6-6-6---x-|5-5---x---------------------|
B|5-5---5-5-5---5-|5-5---5-5-5-5-x-|8-8---8-8-8---x-|6-6---x-5-5-15----15--------|
G|6-6---6-6-6---6-|6-6---6-6-6-6-x-|7-7---7-7-7---x-|5-5---x-6-6-17b19-17b19-----|
D|7-7---7-7-7---7-|7-7---7-7-7-7-x-|8-8---8-8-8---x-|------x-7-7-----------------|
A|----------------|----------------|----------------|----------------------------|
D|----------------|----------------|----------------|----------------------------|


Solo:
e|----------------|------------------|------------------|------------------|
B|----------------|------------------|------------------|------------------|
G|----------------|------------------|------------------|------------------|
D|----------------|------------------|------------------|------------------|
A|-----------5h6h7|-------------5h6h7|-------------5h6h7|-------------5h6h7|
D|0--3--5h6h7-----|0---3---5h6h7-----|0---3---5h6h7-----|0---3---5h6h7-----|

e|------------------------------------|------------------------------------|
B|------------------------------------|-11--10-11-10---10-10-8-10---15-----|
G|14-14-13-14-12-14--14--14--14--14---|-----------------------------17b19--|
D|-----------------15--14--12--11-----|-8---7--8--7----7--7--5-7-----------|
A|---------------------------------14\|------------------------------------|
D|------------------------------------|------------------------------------|

(Repeat 3 times)


e|15---------|
B|17b19------|                     Guitar Wail Build up:
G|-----------|(play these notes many times for the build up wailing effect)
D|-----------|
A|-----------|
D|-----------|


>>>>On the RECORD version: Go back to Chorus 2, and then end by playing the second half 
the Intro Synth riff (marked by ####).


>>>>The following is the LIVE version (played in teignmouth etc):

Repeat Chorus 2, play the guitar wail buildup, and then go into this solo:


e|----------------|------------------|------------------|------------------|
B|----------------|------------------|------------------|------------------|
G|----------------|------------------|------------------|------------------|
D|----------------|------------------|------------------|------------------|
A|-----------5h6h7|-------------5h6h7|-------------5h6h7|-------------5h6h7|
D|0--3--5h6h7-----|0---3---5h6h7-----|0---3---5h6h7-----|0---3---5h6h7-----|

e|----------------|------------------|------------------|------------------|
B|----------------|------------------|------------------|------------------|
G|----------------|------------------|------------------|------------------|
D|----------------|------------------|------------------|------------------|
A|-----------5h6h7|-------------5h6h7|-------------5h6h7|-------------5h6h7|
D|0--3--5h6h7-----|0---3---5h6h7-----|0---3---5h6h7-----|0---3---5h6h7-----|

e|----------------|------------------|------------------|------------------|
B|----------------|------------------|------------------|------------------|
G|----------------|------------------|------------------|------------------|
D|----------------|------------------|------------------|------------------|
A|7--10------5h6h7|-------------5h6h7|7--10--------5h6h7|-------------5h6h7|
D|------5h6h7-----|0---3---5h6h7-----|--------5h6h7-----|0---3---5h6h7-----|

e|----------------|------------------|------------------|------------------|
B|----------------|------------------|------------------|------------------|
G|----------------|------------------|------------------|------------------|
D|----------------|------------------|------------------|------------------|
A|-----------5h6h7|-------------5h6h7|-------------5h6h7|-------------5h6h7|
D|0--3--5h6h7-----|0---3---5h6h7-----|0---3---5h6h7-----|0---3---5h6h7-----|

e|----------------|------------------|------------------|------------------|
B|----------------|------------------|------------------|------------------|
G|7-10------------|------------------|------------------|------------------|
D|----------------|------------------|------------------|------------------|
A|-----------5h6h7|-------------5h6h7|7--10--------5h6h7|-------------5h6h7|
D|------5h6h7-----|0---3---5h6h7-----|--------5h6h7-----|0---3---5h6h7-----|

e|----------------|------------------|------------------|------------------|
B|----------------|------------------|------------------|--15-----15-------|
G|----------------|------------------|------------------|--17b19--17b19~\\-|
D|----------------|------------------|------------------|------------------|
A|-7--10~~~-------|-10--12~~~--------|-12--14~~~--------|------------------|
D|----------------|------------------|------------------|------------------|


| /  slide up
| \  slide down
| h  hammer-on
| p  pull-off
| ~  vibrato
| +  harmonic
| x  Mute note
===============================================================================
Suggest correction
comments
print report bad tab
6 comments total. Showing first comments.
0 reply
!*!MUSE!*! 10 wrote on September 30 2009, 03:48 pm

Finally, a right tab for uprising. Seen that all the other tabs are wrong on the making of the resistance dvd. Well Done! :L

0 reply
minimattako 41 wrote on October 3 2009, 02:39 pm

The third last line is not needed (on the live solo)

0 reply
minimattako 41 wrote on October 3 2009, 05:27 pm

Also, the following is the guitar wail build up bit! (I typed it wrong sorry!) :P

e|------------|
B|-----15-----|
G|-----17b19--|
D|------------|
A|------------|
E|------------|

guest
You may want to rate the tab now too:
select rating
Wanna post a correction for this tab? Suggest correction