Oops, an error
Loading. Please wait.

Uprising Tab

by Muse
345,492 views 69 this week
4 commentsread comments
1 2 3 4 5
x 15
add to favorites
launch autoscroll
font size
0
reset
how to read this tab
guitar tuner
Autoscroll
slow
fast
+/-
esc
set tempo
stop
Help us to improve Ultimate-Guitar.com Take our survey!
×
Author
Difficulty
Tuning
novice
D A D G B E
Uprising
Muse
The Resistance

Note: This song has not been released yet. I have only heard it a couple of times. 
I am using Esparoba1's video to help me. This is my first tab.

Tuning: Drop D


 [Verse and Chorus]
E|----|----|----|----|
B|----|----|----|----|
G|-7--|-5--|-6--|-7--|
D|-x--|-x--|-x--|-x--|
A|-5--|-3--|-4--|-5--|
D|----|----|----|----|

 The rhythm is something like that but listen to the song for the chord changes.
E|---------------------|
B|---------------------|
G|-oo--ooo--o-o-oo-oo-o|  
D|-xx--xxx--x-x-xx-xx-x|
A|-oo--ooo--o-o-oo-oo-o|
D|---------------------|


 [Bridge]
E|---------------------|
B|---------------------|
G|-77--777--7-7-77-77-7|  x2
D|-xx--xxx--x-x-xx-xx-x|
A|-55--555--5-5-55-55-5|
D|---------------------|

[Chorus]
Same as verse but with...

E|-----------------------------------------|
B|-----------------------------------------|
G|-12-12----12-12-12----12-10-10---10-10-10|
D|-x--x-----x--x--x-----x--x--x----x--x--x-|
A|-10-10----10-10-10----10-8--8----8--8--8-|
D|-----------------------------------------|

[Solo]

E|-------------------|
B|-------------------|
G|-------------------| 4x
D|-------------------|
A|--------------3-4-5|
D|-0---3---5-6-7-----|

E|-----------------------------------|
B|-10-10-9-9-8-8-6-6-5-5-3-3-2-2-----|
G|-------------------------------2-2-|
D|-----------------------------------|
A|-----------------------------------|
D|-----------------------------------|

E|----------------------------------|
B|-----------------------------15---|
G|-----------------------------17b19|
D|-8-7-8-7--7--7--7--7-10-7-10------|
A|----------------------------------|
D|----------------------------------|



************************************

| x  Dead note
| b  Bend

************************************
Suggest correction
comments
print report bad tab
4 comments total. Showing first comments.
0 reply
ilister2009 42 Aug 08, 2009 04:14 AM

Good tab mate. Figured out the chord progression of the verses in a lot more detail, so I will post a chord tab later today and if anyone wants to add the octaves of the chords to their tabs then they can.

-2 reply
hernandeznathan 10 Aug 14, 2009 08:00 PM

Great tab! I seen that guy on youtube! He is a good guitar player!

0 reply
emordelev 10 Mar 07, 2013 10:47 AM

Awesome tab Thanks a lot!

guest
You may want to rate the tab now too:
select rating
Wanna post a correction for this tab? Suggest correction