Oops, an error
Loading. Please wait.

Uprising Bass Tab

version 2
by Muse
135,668 views 39 this week
8 commentsread comments
1 2 3 4 5
x 37
add to favorites
launch autoscroll
font size
0
reset
guitar tuner
Autoscroll
slow
fast
+/-
esc
set tempo
stop
Help us to improve Ultimate-Guitar.com Take our survey!
×
Author
Difficulty
intermediate
[Intro]

G|------------|
D|--------12--|
A|------------|  x16
E|--10--------|

When Synth Starts

G|----------|     |--------12--|    |------10--|     |------14--|
D|------12--|     |------------|    |----------|     |----------|
A|----------| x8  |--10--------| x4 |--8-------| x4  |--12------| x8
E|--10------|     |------------|    |----------|     |----------|

G|------12--|     |--------10--|     |----------|     |------12--|
D|----------|     |------------|     |------11--|     |----------|
A|--10------| x4  |--8---------| x2  |----------| x2  |--10------| x8
E|----------|     |------------|     |--9-------|     |----------|

G|------12--|     |--------10--|     |------13--|     |------14--|
D|----------|     |------------|     |----------|     |----------|
A|--10------| x4  |--8---------| x2  |--11------| x2  |--12------| x8
E|----------|     |-----------|      |----------|     |----------|

G|------12--|     |--------10--|     |----------|     |------------|
D|----------|     |------------|     |------11--|     |--------12--|
A|--10------| x4  |--8---------| x2  |----------| x2  |------------| x16
E|----------|     |------------|     |--9-------|     |--10--------|

Starts a bit before vocals come in.

G|----------|     |--------12--|    |------10--|     |------14--|
D|------12--|     |------------|    |----------|     |----------|
A|----------| x8  |--10--------| x4 |--8-------| x4  |--12------| x8
E|--10------|     |------------|    |----------|     |----------|

G|------12--|     |--------10--|     |----------|     |----------|
D|----------|     |------------|     |------11--|     |------12--|
A|--10------| x4  |--8---------| x2  |----------| x2  |----------| x8
E|----------|     |------------|     |--9-------|     |--10------|

G|------12--|     |--------10--|     |------13--|     |------14--|
D|----------|     |------------|     |----------|     |----------|
A|--10------| x4  |--8---------| x2  |--11------| x2  |--12------| x8
E|----------|     |------------|     |----------|     |----------|

G|------12--|     |--------10--|     |----------|     |------------|
D|----------|     |------------|     |------11--|     |--------12--|
A|--10------| x4  |--8---------| x2  |----------| x2  |------------| x16
E|----------|     |------------|     |--9-------|     |--10--------|

Matt starts singing again ^_^

G|----------|     |--------12--|    |------10--|     |------14--|
D|------12--|     |------------|    |----------|     |----------|
A|----------| x8  |--10--------| x4 |--8-------| x4  |--12------| x8
E|--10------|     |------------|    |----------|     |----------|

G|------12--|     |--------10--|     |----------|     |----------|
D|----------|     |------------|     |------11--|     |------12--|
A|--10------| x4  |--8---------| x2  |----------| x2  |----------| x8
E|----------|     |------------|     |--9-------|     |--10------|

G|------12--|     |--------10--|     |------13--|     |------14--|
D|----------|     |------------|     |----------|     |----------|
A|--10------| x4  |--8---------| x2  |--11------| x2  |--12------| x8
E|----------|     |------------|     |----------|     |----------|

G|------12--|     |--------10--|     |----------|     |------------|
D|----------|     |------------|     |------11--|     |--------12--|
A|--10------| x4  |--8---------| x2  |----------| x2  |------------| x16
E|----------|     |------------|     |--9-------|     |--10--------|

Starts a bit before Vocals come in.

G|----------|     |--------12--|    |------10--|     |------14--|
D|------12--|     |------------|    |----------|     |----------|
A|----------| x8  |--10--------| x4 |--8-------| x4  |--12------| x8
E|--10------|     |------------|    |----------|     |----------|

G|------12--|     |--------10--|     |----------|     |----------|
D|----------|     |------------|     |------11--|     |------12--|
A|--10------| x4  |--8---------| x2  |----------| x2  |----------| x8
E|----------|     |------------|     |--9-------|     |--10------|

G|------12--|     |--------10--|     |------13--|     |------14--|
D|----------|     |------------|     |----------|     |----------|
A|--10------| x4  |--8---------| x2  |--11------| x2  |--12------| x8
E|----------|     |------------|     |----------|     |----------|

G|------12--|     |--------10--|     |----------|     |------------|
D|----------|     |------------|     |------11--|     |--------12--|
A|--10------| x4  |--8---------| x2  |----------| x2  |------------| x16
E|----------|     |------------|     |--9-------|     |--10--------|

Matt comes in again

G|----------|     |--------12--|    |------10--|     |------14--|
D|------12--|     |------------|    |----------|     |----------|
A|----------| x8  |--10--------| x4 |--8-------| x4  |--12------| x8
E|--10------|     |------------|    |----------|     |----------|

G|------12--|     |--------10--|     |----------|     |----------|
D|----------|     |------------|     |------11--|     |------12--|
A|--10------| x4  |--8---------| x2  |----------| x2  |----------| x8
E|----------|     |------------|     |--9-------|     |--10------|

G|------12--|     |--------10--|     |------13--|     |------14--|
D|----------|     |------------|     |----------|     |----------|
A|--10------| x4  |--8---------| x2  |--11------| x2  |--12------| x8
E|----------|     |------------|     |----------|     |----------|

G|------12--|     |--------10--|     |----------|     |------------|
D|----------|     |------------|     |------11--|     |--------12--|
A|--10------| x4  |--8---------| x2  |----------| x2  |------------| x16
E|----------|     |------------|     |--9-------|     |--10--------|

Guitar Riff comes in.

G|----------|     |--------12--|    |------10--|     |------14--|
D|------12--|     |------------|    |----------|     |----------|
A|----------| x8  |--10--------| x4 |--8-------| x4  |--12------| x8
E|--10------|     |------------|    |----------|     |----------|

G|------12--|     |--------10--|     |----------|     |----------|
D|----------|     |------------|     |------11--|     |------12--|
A|--10------| x4  |--8---------| x2  |----------| x2  |----------| x8
E|----------|     |------------|     |--9-------|     |--10------|

G|------12--|     |--------10--|     |------14--|     |------12--|
D|----------|     |------------|     |----------|     |----------|
A|-10-------| x4  |--8---------| x4  |--12------| x8  |--10------| x4
E|----------|     |------------|     |----------|     |----------|

G|------10--|     |----------|       |----------|     |------12--|
D|----------|     |------11--|       |------12--|     |----------|
A|--8-------| x2  |----------| x2    |----------| x8  |--10------| x4
E|----------|     |--9-------|       |--10------|     |----------|

G|------10--|     |------13--|       |------14--|     |------12--|
D|----------|     |----------|       |----------|     |----------|
A|--8-------| x2  |--11------| x2    |--12------| x8  |--10------| x4
E|----------|     |----------|       |----------|     |----------|

G|------10--|     |----------|      |----------------------------------------|
D|----------|     |------11--|      |12x12(play 12---------------------------| times)
A|--8-------| x2  |----------| x2   |-------15h17-17-15h17-17-17-15-14-15-14-|
E|----------|     |--9-------|      |-----------------(the tengoes last)-10--|

G|----------|     |--------12--|    |------10--|     |------14--|
D|------12--|     |------------|    |----------|     |----------|
A|----------| x8  |--10--------| x4 |--8-------| x4  |--12------| x8
E|--10------|     |------------|    |----------|     |----------|

G|------12--|     |--------10--|     |----------|     |----------|
D|----------|     |------------|     |------11--|     |------12--|
A|--10------| x4  |--8---------| x2  |----------| x2  |----------| x8
E|----------|     |------------|     |--9-------|     |--10------|

G|------12--|     |--------10--|     |------13--|     |------14--|
D|----------|     |------------|     |----------|     |----------|
A|--10------| x4  |--8---------| x2  |--11------| x2  |--12------| x8
E|----------|     |------------|     |----------|     |----------|

G|------12--|     |--------10--|     |----------|     |------------|
D|----------|     |------------|     |------11--|     |--------12--|
A|--10------| x4  |--8---------| x2  |----------| x2  |------------| x16
E|----------|     |------------|     |--9-------|     |--10--------|

Vocals Come in.

G|--------12--|   |--------10--|     |--------13--|   |--------14--|
D|------------|   |------------|     |------------|   |------------|
A|--10--------| x4|--8---------| x2  |--11--------| x2|--12--------| x8
E|------------|   |------------|     |------------|   |------------|

G|--------12--|   |--------10--|     |------------|   |------------|
D|------------|   |------------|     |--------11--|   |--------12--|
A|--10--------| x4|--8---------| x2  |------------| x2|------------| x16
E|------------|   |------------|     |--9---------|   |--10--------|

G|------------|
D|------------|
A|------------|
E|--10/-------|

************************************

| x  Dead note
| h  Hammer-on
| /  Slide up

************************************

Well thats the best i could do if you have any corrections email me at 
Oh and listen to the song to get the proper rhythm of this bass line. ENJOY ^_^
Suggest correction
comments
print report bad tab
8 comments total. Showing first comments.
+2 reply
ZaCh45 71 Sep 17, 2009 05:10 PM

In the "When Synth Starts" section on the 2nd row, 4th column you put 10 on A then 12 on G. It should be 10 on E then 12 on D(like you have it in the rest of the song). Great tab otherwise.

+1 reply
Straybassist 31 Sep 27, 2009 07:36 AM

apart from what ZaCH45 said, the only correstion needed is at the last section it should read "Synth comes in" not "Vocals come in" but apart from the other correction, the tab is perfect!! :D

+1 reply
matt_da_bassist 10 Oct 22, 2009 12:24 PM

First of all, congrats on this near perfect tab! The only correction i am looking to make is to the bass lick at the end of the guitar solo bit. I believe it should be played like this:

G------------------------------------------------------
D--10h12-12x11---10h1212--10h1212---12-10----10--------
A-----------------------------------------12----12-10--
E------------------------------------------------------

Hope you agree! Keep up the good work! =]

guest
You may want to rate the tab now too:
select rating
Wanna post a correction for this tab? Suggest correction