Oops, an error
Loading. Please wait.

Uprising Tab

29,782 views 18 this week
no commentswrite comment
1 2 3 4 5
x 4
add to favorites
launch autoscroll
font size
0
reset
how to read this tab
guitar tuner
×
Best way to learn
"Uprising"
Autoscroll
slow
fast
+/-
esc
set tempo
stop
Difficulty
Tuning
intermediate
D G C F A D
This my first tab so please be nice :)

[Intro]

The intro is mainly bass and synth, but when the synth ends the guitar does a bend here:

E|------------|
B|---15b16----|
G|---17b19----|
D|------------|
A|------------|
D|------------|

The guitar also does this after every verse, or after every "so come on".

[Verse 2/Chorus]

E|---------------------------------------------------------------------------|
B|---------------------------------------------------------------------------|
G|---777X-777X-777X-7777777X-777X-755X-5555566X-666X-666X-6666677X-777X-77---|7X
D|---xxxX-xxxX-xxxX-xxxxxxxX-xxxX-xxxX-xxxxxxxX-xxxX-xxxX-xxxxxxxX-xxxX-xxxX-|
A|---555X-555X-555X-5555555X-555X-533X-3333344X-444X-444X-4444455X-555X-55---|5X
D|---------------------------------------------------------------------------|

E|-------------|
B|-------------|
G|-7777777X----|
D|-xxxxxxxX----|    x4 verse, x2 chorus
A|-5555555X----|
D|-------------|

[Solo]

E|----------------------------------------------|
B|----------------------------------------------|
G|----------------------------------------------|
D|----------------------------------------------|
A|---------3/5--------3/5--------3/5--------3/5-|
D|--0-3-3/5----0-3-3/5----0-3-3/5----0-3-3/5----|

E|------------------------------------|
B|--10--10--10--10--10--10--10--10----|
G|----14--13--12--10------------------|
D|--------------------14--12--11------|
A|------------------------------------|
D|--------------------------------20\-|

E|-------------------------------------|
B|-------------------------------15b16-|
G|--14-1415141514-14-1415141514--17b19-|
D|-------------------------------------|    x3
A|--12-1213121312-12-1213121312--------|
D|-------------------------------------|

E|-------------------------------------|
B|--15b16-15b16-15b16-15b16-15b16------|
G|--17b19-17b19-17b19-17b19-17b19------|
D|-------------------------------------|
A|-------------------------------------|
D|-------------------------------------|


Then just do the chorus again and thats it! all done!
Enjoy :)
Suggest correction
comments
print report bad tab
guest
You may want to rate the tab now too:
select rating
Wanna post a correction for this tab? Suggest correction