Oops, an error
Loading. Please wait.

Uprising Bass Tab

version 3
by Muse
10,038 views 6 this week
1 commentread comment
1 2 3 4 5
x 5
add to favorites
launch autoscroll
font size
0
reset
guitar tuner
Autoscroll
slow
fast
+/-
esc
set tempo
stop
Help us to improve Ultimate-Guitar.com Take our survey!
×
Author
Difficulty
intermediate
Band: Muse
Song: Uprising
Album: The Resistance

Tuning: Standard

/: Slide
h: Hammer on
p: Pull off



Intro
G||----7---7---7---7---7---7---7---7---7---7---7---7--|
D||---------------------------------------------------|
A||--5---5---5---5---5---5---5---5---5---5---5---5----|
E||---------------------------------------------------|
B||---------------------------------------------------|x2


Verse
G||-----12----12----12----12---10---10---10---10--|
D||-----------------------------------------------|
A||--10----10----10----10----8----8----8----8-----|
E||-----------------------------------------------|
B||-----------------------------------------------|

G||-----14----14----14----14----14----14----14----14--|
D||---------------------------------------------------|
A||--12----12----12----12----12----12----12-----12----|
E||---------------------------------------------------|
B||---------------------------------------------------|

G||-----12----12----12----12---10---10---6---6--|
D||---------------------------------------------|
A||--10----10----10----10----8----8----4----4---|
E||---------------------------------------------|
B||---------------------------------------------|

G||----7---7---7---7---7---7---7---7--|
D||-----------------------------------|
A||--5---5---5---5---5---5---5---5----|
E||-----------------------------------|
B||-----------------------------------|

Suggest correction
comments
print report bad tab
1 comment total.
0 reply
joe armstrong 10 Oct 19, 2009 01:17 PM

the very beginning so not right

guest
You may want to rate the tab now too:
select rating
Wanna post a correction for this tab? Suggest correction