Oops, an error
Loading. Please wait.

Uprising Tab

by Muse
102,739 views 18 this week
3 commentsread comments
1 2 3 4 5
accurate
x 12
add to favorites
launch autoscroll
font size
0
reset
how to read this tab
guitar tuner
Autoscroll
slow
fast
+/-
esc
set tempo
stop
Help us to improve Ultimate-Guitar.com Take our survey!
×
Contributor
Difficulty
Tuning
graymic 490
intermediate
D A D G B E
-------------------------------------------------------------------------------
                             Uprising - Muse (The Resistance)
-------------------------------------------------------------------------------
Tabbed by: graymic
Email: bincobling4@hotmail.com

For reference check out my cover: http://www.youtube.com/watch?v=kwEc706oYSY

Tuning: Drop D
This involves the synth role which I worked out by using a Zoom G1X through a Laney LV300.

Intro Synth Pitch Shift 1 Octave
e|---------------------------------------------------------------------------|
B|-10-6--------------10-5-----11-13-11-10------------------------------------|
G|------7-----------------6--------------------------------------------------|
D|--------7-8~10-8-7--------7------------------------------------------------|
A|---------------------------------------------------------------------------|
D|---------------------------------------------------------------------------|

e|-----------------------------------------------------------------------------|
B|-10-6-------6-10---11-10-8-10-----10-5-------5-8---8-6-5-6---3--3------------|
G|------7---7------7---------------------6---6-----6-----------5b-5b-----------|
D|--------7--------------------------------7-----------------------------------|
A|-----------------------------------------------------------------------------|
D|-----------------------------------------------------------------------------|

bend @ "we will never see the truth" and "truth confined"
e|-----------------------------------------------------------------------------|
B|--3--3-----------------------------------------------------------------------|
G|--5b-5b----------------------------------------------------------------------|
D|-----------------------------------------------------------------------------|
A|-----------------------------------------------------------------------------|
D|-----------------------------------------------------------------------------|

e|---------------------------------------------------------------------------|
B|-10-6--------------10-5-----11-13-11-10------------------------------------|
G|------7-----------------6--------------------------------------------------|
D|--------7-8~10-8-7--------7------------------------------------------------|
A|---------------------------------------------------------------------------|
D|---------------------------------------------------------------------------|

e|-----------------------------------------------------------------------------|
B|-10-6-------6-10---11-10-8-10-----10-5-------5-8---8-6-5-6---3--3------------|
G|------7---7------7---------------------6---6-----6-----------5b-5b-----------|
D|--------7--------------------------------7-----------------------------------|
A|-----------------------------------------------------------------------------|
D|-----------------------------------------------------------------------------|

The strumming part you will have to work out the pattern by listening to it.
e|------------------------------------------------------------------------------|
B|------------------------------------------------------------------------------|
G|-7-5-6-3--3-------------------------------------------------------------------|
D|-7-5-6-5b-5b------------------------------------------------------------------|
A|-5-3-4------------------------------------------------------------------------|
D|------------------------------------------------------------------------------|

e|---------------------------------------------------------------------------|
B|-10-6--------------10-5-----11-13-11-10------------------------------------|
G|------7-----------------6--------------------------------------------------|
D|--------7-8~10-8-7--------7------------------------------------------------|
A|---------------------------------------------------------------------------|
D|---------------------------------------------------------------------------|

e|-----------------------------------------------------------------------------|
B|-10-6-------6-10---11-10-8-10-----10-5-------5-8---8-6-5-6---3--3------------|
G|------7---7------7---------------------6---6-----6-----------5b-5b-----------|
D|--------7--------------------------------7-----------------------------------|
A|-----------------------------------------------------------------------------|
D|-----------------------------------------------------------------------------|

e|-----------------------------------------------------------------------------|
B|-----------------------------------------------------------------------------|
G|------------------14-14-12-14-10-14-9-14----14----14----14-------------------|
D|-----------------------------------------12----10----------------------------|
A|-------0-2-3-5-x4------------------------------------13----12-13-12-13-12----|
D|-0-3-5-----------------------------------------------------------------------|

e|---------------------------------------------------------------------------|
B|-------------15------------------------------------------------------------|
G|-------------17b-----------------------------------------------------------|
D|---------------------------------------------------------------------------|
A|-12-12-10-12---------------------------------------------------------------|
D|---------------------------------------------------------------------------|


| /  slide up
| \  slide down
| h  hammer-on
| p  pull-off
| ~  vibrato
| +  harmonic
| x  Mute note
===============================================================================
Suggest correction new What's this?
You can suggest a correction to this tab. Community and Mods will review your correction and vote to approve or reject it.
comments
print report bad tab
3 comments total.
+2 reply
rocknrollrob 85 wrote on August 5 2009, 08:38 am

You says it on drop D but in the tab you have the strings EADGBe shouldn't it be DADGBe ?

+1 reply
DavyB 346 wrote on August 5 2009, 04:14 pm

for the bit where the guitar comes in, do you not think its ocatves instead of power chords?? sounds like octaves to me

0 reply
graymic 490 wrote on August 5 2009, 05:58 pm

As a response to RocknRollRob, I dont think it was really an issue for someone who read the top and realised it was in Drop D to be honest, but I WILL change it for you.

Also regarding DavyB. It could very well be, however the reason why I chose the low octaves was for the pitch shift effect. This gives that nice "like a stone" - audio slave synth sound. However it is a standard sweep pattern Played in the higher octaves which if you prefer I can upload that version?

guest
You may want to rate the tab now too:
select rating
Please do not post tabs as comments. Select "correction" instead!