Oops, an error
Loading. Please wait.

Uprising Bass Tab

version 5
by Muse
46,287 views 45 this week
5 commentsread comments
1 2 3 4 5
excellent!
x 26
add to favorites
launch autoscroll
font size
0
reset
guitar tuner
Tab Pro tools
  • play this tab
  • loop segment
  • change instrument
  • show fretboard
  • metronome
×
Best way to learn
"Uprising"
Autoscroll
slow
fast
+/-
esc
set tempo
stop
Contributor
Difficulty
intermediate
-------------------------------------------------------------------------------
			     "Uprising" --- MUSE
-------------------------------------------------------------------------------


                            Tabbed By : [travis] 
 

*This is the real way he plays it. I saw MUSE on SNL two days ago, and
 these are the shapes he was playing. *


Key: F Major (F G A Bb C D E) or D Minor

Legend:

h = hammer on
p = pull off
/ = slide up
\ = slide down


4 String Bass:

Tuning: Standard Tuning (E A D G)



=============
Intro:

G|---7---7---7---7---7---7---7---7---7---7---7---7---7---7---7---7-|
D|-----------------------------------------------------------------| x2
A|-5---5---5---5---5---5---5---5---5---5---5---5---5---5---5---5---|
E|-----------------------------------------------------------------|

=============
Keyboard Part (No Vocals):

G|---7---7---7---7---7---7---7---7----12----12----12----12---10---10---10---10-|
D|-----------------------------------------------------------------------------|
A|-5---5---5---5---5---5---5---5---10----10----10----10----8----8----8----8----|
E|-----------------------------------------------------------------------------|

G|----14----14----14----14----14----14----14----14----12----12----12----12-|
D|-------------------------------------------------------------------------|
A|-12----12----12----12----12----12----12----12----10----10----10----10----|
E|-------------------------------------------------------------------------|

G|---10---10---6---6---7---7---7---7---7---7---7---7----12----12----12----12-|
D|---------------------------------------------------------------------------|
A|-8----8----4---4---5---5---5---5---5---5---5---5---10----10----10----10----|
E|---------------------------------------------------------------------------|

G|---10---10----13----13----14----14----14----14----14----14----14----14-|
D|-----------------------------------------------------------------------|
A|-8----8----11----11----12----12----12----12----12----12----12----12----|
E|-----------------------------------------------------------------------|

G|----12----12----12----12---10---10---6---6---7---7---7---7---7---7---7---7-|
D|---------------------------------------------------------------------------|
A|-10----10----10----10----8----8----4---4---5---5---5---5---5---5---5---5---|
E|---------------------------------------------------------------------------|

G|---7---7---7---7-|
D|-----------------| x5
A|-5---5---5---5---|
E|-----------------|

================
Verse 1:

G|---7---7---7---7---7---7---7---7----12----12----12----12---10---10---10---10-|
D|-----------------------------------------------------------------------------|
A|-5---5---5---5---5---5---5---5---10----10----10----10----8----8----8----8----|
E|-----------------------------------------------------------------------------|

G|----14----14----14----14----14----14----14----14----12----12----12----12-|
D|-------------------------------------------------------------------------|
A|-12----12----12----12----12----12----12----12----10----10----10----10----|
E|-------------------------------------------------------------------------|

G|---10---10---6---6---7---7---7---7---7---7---7---7----12----12----12----12-|
D|---------------------------------------------------------------------------|
A|-8----8----4---4---5---5---5---5---5---5---5---5---10----10----10----10----|
E|---------------------------------------------------------------------------|

G|---10---10----13----13----14----14----14----14----14----14----14----14-|
D|-----------------------------------------------------------------------|
A|-8----8----11----11----12----12----12----12----12----12----12----12----|
E|-----------------------------------------------------------------------|

G|----12----12----12----12---10---10---6---6---7---7---7---7---7---7---7---7-|
D|---------------------------------------------------------------------------|
A|-10----10----10----10----8----8----4---4---5---5---5---5---5---5---5---5---|
E|---------------------------------------------------------------------------|

G|---7---7---7---7-|
D|-----------------| x5
A|-5---5---5---5---|
E|-----------------|

===================
Chorus 1:

G|---7---7---7---7---7---7---7---7----12----12----12----12---10---10---10---10-|
D|-----------------------------------------------------------------------------|
A|-5---5---5---5---5---5---5---5---10----10----10----10----8----8----8----8----|
E|-----------------------------------------------------------------------------|

G|----14----14----14----14----14----14----14----14----12----12----12----12-|
D|-------------------------------------------------------------------------|
A|-12----12----12----12----12----12----12----12----10----10----10----10----|
E|-------------------------------------------------------------------------|

G|---10---10---6---6---7---7---7---7---7---7---7---7----12----12----12----12-|
D|---------------------------------------------------------------------------|
A|-8----8----4---4---5---5---5---5---5---5---5---5---10----10----10----10----|
E|---------------------------------------------------------------------------|

G|---10---10----13----13----14----14----14----14----14----14----14----14-|
D|-----------------------------------------------------------------------|
A|-8----8----11----11----12----12----12----12----12----12----12----12----|
E|-----------------------------------------------------------------------|

G|----12----12----12----12---10---10---6---6---7---7---7---7---7---7---7---7-|
D|---------------------------------------------------------------------------|
A|-10----10----10----10----8----8----4---4---5---5---5---5---5---5---5---5---|
E|---------------------------------------------------------------------------|

G|---7---7---7---7---7---7---7---7-|
D|---------------------------------|
A|-5---5---5---5---5---5---5---5---|
E|---------------------------------|

===================
Short Interlude 1 (No vocals for 5 seconds) (Guitar Finally Comes In):

G|---7---7---7---7---7---7---7---7---7---7---7---7-|
D|-------------------------------------------------|
A|-5---5---5---5---5---5---5---5---5---5---5---5---|
E|-------------------------------------------------|

====================
Verse 2:

G|---7---7---7---7---7---7---7---7----12----12----12----12---10---10---10---10-|
D|-----------------------------------------------------------------------------|
A|-5---5---5---5---5---5---5---5---10----10----10----10----8----8----8----8----|
E|-----------------------------------------------------------------------------|

G|----14----14----14----14----14----14----14----14----12----12----12----12-|
D|-------------------------------------------------------------------------|
A|-12----12----12----12----12----12----12----12----10----10----10----10----|
E|-------------------------------------------------------------------------|

G|---10---10---6---6---7---7---7---7---7---7---7---7----12----12----12----12-|
D|---------------------------------------------------------------------------|
A|-8----8----4---4---5---5---5---5---5---5---5---5---10----10----10----10----|
E|---------------------------------------------------------------------------|

G|---10---10----13----13----14----14----14----14----14----14----14----14-|
D|-----------------------------------------------------------------------|
A|-8----8----11----11----12----12----12----12----12----12----12----12----|
E|-----------------------------------------------------------------------|

G|----12----12----12----12---10---10---6---6-|
D|-------------------------------------------|
A|-10----10----10----10----8----8----4---4---|
E|-------------------------------------------|


=====================
Short Interlude 2 (No Vocals):

G|---7---7---7---7---7---7---7---7---7---7---7---7---7---7---7---7-|
D|-----------------------------------------------------------------| x2
A|-5---5---5---5---5---5---5---5---5---5---5---5---5---5---5---5---|
E|-----------------------------------------------------------------|

======================
Chorus 2:

G|---7---7---7---7---7---7---7---7----12----12----12----12---10---10---10---10-|
D|-----------------------------------------------------------------------------|
A|-5---5---5---5---5---5---5---5---10----10----10----10----8----8----8----8----|
E|-----------------------------------------------------------------------------|

G|----14----14----14----14----14----14----14----14----12----12----12----12-|
D|-------------------------------------------------------------------------|
A|-12----12----12----12----12----12----12----12----10----10----10----10----|
E|-------------------------------------------------------------------------|

G|---10---10---6---6---7---7---7---7---7---7---7---7----12----12----12----12-|
D|---------------------------------------------------------------------------|
A|-8----8----4---4---5---5---5---5---5---5---5---5---10----10----10----10----|
E|---------------------------------------------------------------------------|

G|---10---10----13----13----14----14----14----14----14----14----14----14-|
D|-----------------------------------------------------------------------|
A|-8----8----11----11----12----12----12----12----12----12----12----12----|
E|-----------------------------------------------------------------------|

G|----12----12----12----12---10---10---6---6-|
D|-------------------------------------------|
A|-10----10----10----10----8----8----4---4---|
E|-------------------------------------------|

========================
Pre Solo (Use either a wah pedal or a space echo pedal):

G|---7---7---7---7---7---7---7---7-|
D|---------------------------------| x2
A|-5---5---5---5---5---5---5---5---|
E|---------------------------------|

========================
Guitar Solo:
"Hey!      Hey!"

G|---7---7---7---7---7---7---7---7----12----12----12----12---10---10---10---10-|
D|-----------------------------------------------------------------------------|
A|-5---5---5---5---5---5---5---5---10----10----10----10----8----8----8----8----|
E|-----------------------------------------------------------------------------|

G|----14----14----14----14----14----14----14----14----12----12----12----12-|
D|-------------------------------------------------------------------------|
A|-12----12----12----12----12----12----12----12----10----10----10----10----|
E|-------------------------------------------------------------------------|

G|---10---10---6---6-|
D|-------------------|
A|-8----8----4---4---|
E|-------------------|

"Hey!      Hey!"
G|---7---7---7---7---7---7---7---7----12----12----12----12---10---10---10---10-|
D|-----------------------------------------------------------------------------|
A|-5---5---5---5---5---5---5---5---10----10----10----10----8----8----8----8----|
E|-----------------------------------------------------------------------------|

G|----14----14----14----14----14----14----14----14----12----12----12----12-|
D|-------------------------------------------------------------------------|
A|-12----12----12----12----12----12----12----12----10----10----10----10----|
E|-------------------------------------------------------------------------|

G|---10---10---6---6---7---7---7---7---7---7---7---7----12----12----12----12-|
D|---------------------------------------------------------------------------|
A|-8----8----4---4---5---5---5---5---5---5---5---5---10----10----10----10----|
E|---------------------------------------------------------------------------|

G|---10---10----13----13----14----14----14----14----14----14----14----14-|
D|-----------------------------------------------------------------------|
A|-8----8----11----11----12----12----12----12----12----12----12----12----|
E|-----------------------------------------------------------------------|

G|----12----12----12----12---10---10---6---6-|
D|-------------------------------------------|
A|-10----10----10----10----8----8----4---4---|
E|-------------------------------------------|

Ending of Solo:
G|-7-7-7-7-7-7-7-7-7-7-7-7-5h7-7-5h7-7-7-5---5-----|
D|-----------------------------------------7---7---|
A|-----------------------------------------------8-|
E|-------------------------------------------------|

=======================
Chorus 3:

G|---7---7---7---7---7---7---7---7----12----12----12----12---10---10---10---10-|
D|-----------------------------------------------------------------------------|
A|-5---5---5---5---5---5---5---5---10----10----10----10----8----8----8----8----|
E|-----------------------------------------------------------------------------|

G|----14----14----14----14----14----14----14----14----12----12----12----12-|
D|-------------------------------------------------------------------------|
A|-12----12----12----12----12----12----12----12----10----10----10----10----|
E|-------------------------------------------------------------------------|

G|---10---10---6---6---7---7---7---7---7---7---7---7----12----12----12----12-|
D|---------------------------------------------------------------------------|
A|-8----8----4---4---5---5---5---5---5---5---5---5---10----10----10----10----|
E|---------------------------------------------------------------------------|

G|---10---10----13----13----14----14----14----14----14----14----14----14-|
D|-----------------------------------------------------------------------|
A|-8----8----11----11----12----12----12----12----12----12----12----12----|
E|-----------------------------------------------------------------------|

G|----12----12----12----12---10---10---6---6-|
D|-------------------------------------------|
A|-10----10----10----10----8----8----4---4---|
E|-------------------------------------------|

====================
Ending:

G|---7---7---7---7---7---7---7---7---7---7---7---7---7---7---7---7-|
D|-----------------------------------------------------------------|
A|-5---5---5---5---5---5---5---5---5---5---5---5---5---5---5---5---|
E|-----------------------------------------------------------------|

G|---7---7---7---7---7---7---7---7----|
D|------------------------------------|
A|-5---5---5---5---5---5---5---5---5--|
E|------------------------------------|

Please Rate And Comment.
Thanks Everyone.
[travis]
comments
print report bad tab
5 comments total. Showing first comments.
+1 reply
Cheweroni wrote on February 26 2010, 11:34 am

awesome, this looks good, i think you the sweet bassline at the end of the guitar solo is better than the other five star tab

+1 reply
Cheweroni wrote on February 26 2010, 11:40 am

i think the bassline at the end of the guitar solo is better than the other 5 star tab* my B

0 reply
BambooBass wrote on April 1 2010, 11:43 am

Great tabs !
5*

I want to post or [tab]
guest
You may want to rate the tab now too:
select rating
Please do not post tabs as comments. Select "correction" instead!