Oops, an error
Loading. Please wait.

Uprising Tab

by Muse
41,503 views 1 this week
2 commentsread comments
1 2 3 4 5
accurate
x 7
add to favorites
launch autoscroll
font size
0
reset
how to read this tab
guitar tuner
Autoscroll
slow
fast
+/-
esc
set tempo
stop
Help us to improve Ultimate-Guitar.com Take our survey!
×
Author
Difficulty
Tuning
novice
D A D G B E
Uprising
Muse
The Resistance (2009)

Tabbed by Isaac Lister (ilister2009)

Constructive criticisms welcome.

Intro- all played with quick downstroke/upstroke to get the galloping feel of the bass

E---------------------------------------|
B---------------------------------------|
G--7------------------------------------|
D--x-x32 (til synth comes in)-----------|
A--5------------------------------------|
D--0------------------------------------|

When synth comes in..

E---------------------------------------------------|
B---------------------------------------------------|
G---7-----------------------------------------------|
D---x-x16--5-----3-----7------5-----3----0----------|
A---5------5-x8--3-x8--7-x16--5-x8--3-x4-0-x4-------|
D---0------5-----3-----7------5-----3----0----------|

then

E---------------------------------------------------------------|
B------------------------------------------------15b17----------|
G---7--------------------------------------------17b19----------|
D---x-x16--5-----3----6----7------5-----3----0-----------0------|
A---5------5-x8--3-x4-6-x4-7-x16--5-x8--3-x4-0-x2--------0-x16--|
D---0------5-----3----6----7------5-----3----0-----------0------|

VERSE 1

E----------------------------------------------------|
B----------------------------------------------15b17-|
G---7------------------------------------------17b19-|
D---x-x16--5-----3-----7------5-----3----0-----------|
A---5------5-x8--3-x8--7-x16--5-x8--3-x4-0-x4--------|
D---0------5-----3-----7------5-----3----0-----------|
Paranoia         will  push   we'll truth

E---------------------------------------------------------------|
B------------------------------------------------15b17----------|
G---7--------------------------------------------17b19----------|
D---x-x16--5-----3----6----7------5-----3----0-----------0------|
A---5------5-x8--3-x4-6-x4-7-x16--5-x8--3-x4-0-x2--------0-x16--|
D---0------5-----3----6----7------5-----3----0-----------0------|
Another   package         green   red   truth confined

CHORUS 1


E---------------------------------------------------|
B---------------------------------------------------|
G---7-----------------------------------------------|
D---x-x16--5-----3-----7------5-----3----0----------|
A---5------5-x8--3-x8--7-x16--5-x8--3-x4-0-x4-------|
D---0------5-----3-----7------5-----3----0----------|
They       force us    they degrading us

E---------------------------------------------------------------|
B------------------------------------------------15b17----------|
G---7--------------------------------------------17b19----------|
D---x-x16--5-----3----6----7------5-----3----0-----------0------|
A---5------5-x8--3-x4-6-x4-7-x16--5-x8--3-x4-0-x2--------0-x16--|
D---0------5-----3----6----7------5-----3----0-----------0------|
They       control us      we  victorious

2ND VERSE

E-------------------------------------------------------------------|
B-------------------------------------------------------------------|
G--77-777-777-777-777-777-777-777-7---1212-121212-12-1010-101010-10-|
D--77-777-777-777-777-777-777-777-7---1212-121212-12-1010-101010-10-|
A--55-555-555-555-555-555-555-555-5---1010-101010-10-8-8--8-8-8--8--|
D-------------------------------------------------------------------|
                    Interchanging     revolution     take its toll


E---------------------------------------------------------------------|
B--------------------------------------------------------------15b17--|
G--1414-141414-141414-141414-14--1212-121212-12-1010-1010------17b19--|
D--1414-141414-141414-141414-14--1212-121212-12-1010-1010-------------|
A--1212-121212-121212-121212-12--1010-101010-10-8-8--8-8--------------|
D----------------------------------------------------------0----------|
     flick a switch              we should      afraid

E-------------------------------------------------------------------|
B-------------------------------------------------------------------|
G--77-777-777-777--7---1212-121212-12-1010-10-1313-13---------------|
D--77-777-777-777--7---1212-121212-12-1010-10-1313-13---------------|
A--55-555-555-555--5---1010-101010-10-8-8--8--1111-11---------------|
D-------------------------------------------------------------------|
    Rise up and take   fat cats        heart attack

E---------------------------------------------------------------------|
B--------------------------------------------------------------15b17--|
G--1414-141414-141414-141414-14--1212-121212-12-1010-1010------17b19--|
D--1414-141414-141414-141414-14--1212-121212-12-1010-1010-------------|
A--1212-121212-121212-121212-12--1010-101010-10-8-8--8-8--------------|
D----------------------------------------------------------0----------|

CHORUS 2

E---------------------------------------------------|
B---------------------------------------------------|
G---7-----------------------------------------------|
D---x-x16--5-----3-----7------5-----3----0----------|
A---5------5-x8--3-x8--7-x16--5-x8--3-x4-0-x4-------|
D---0------5-----3-----7------5-----3----0----------|
They       force us    they degrading us

E---------------------------------------------------------------|
B------------------------------------------------15b17----------|
G---7--------------------------------------------17b19----------|
D---x-x16--5-----3----6----7------5-----3----0------------------|
A---5------5-x8--3-x4-6-x4-7-x16--5-x8--3-x4-0-x2---------x16---|
D---0------5-----3----6----7------5-----3----0-----------0------|
They       control us      we  victorious

BRIDGE
                                (9-9 becomes 9h10p9 on last repeat)
E---------------------------------------------------------------------------------------]
B-------------------------10-10-9-9-8-8-6-6-5-5-3-3-2-2--------------------------15b17--]
G--------------------------------------------------------2-2---------------------17b19--]
D-------------------]------------------------------------------8-7-8-7-7-7-7/10---------] x3
A-------------3h4h5-]-x4----------------------------------------------------------------]
D--0-3--5h6h7-------]-------------------------------------------------------------------]

then 15b17
     17b19 x8 to lead into last chorus

CHORUS 3

E---------------------------------------------------|
B---------------------------------------------------|
G---7-----------------------------------------------|
D---x-x16--5-----3-----7------5-----3----0----------|
A---5------5-x8--3-x8--7-x16--5-x8--3-x4-0-x4-------|
D---0------5-----3-----7------5-----3----0----------|
They       force us    they degrading us

E---------------------------------------------------------------|
B------------------------------------------------15b17----------|
G---7--------------------------------------------17b19----------|
D---x-x16--5-----3----6----7------5-----3----0------------------|
A---5------5-x8--3-x4-6-x4-7-x16--5-x8--3-x4-0-x2---------x16---|
D---0------5-----3----6----7------5-----3----0-----------0------|
They       control us      we  victorious

OUTRO

E-----------------------------------------------------------------|
B------------------------------------------------15b17------------|
G---7--------------------------------------------17b19------------|
D---x-x16--5-----3----6----7------5-----3----0-----------------0\-|
A---5------5-x8--3-x4-6-x4-7-x16--5-x8--3-x4-0-x2---------x16--0\-|
D---0------5-----3----6----7------5-----3----0-----------0-----0\-|
Suggest correction
comments
print report bad tab
2 comments total.
0 reply
ilister2009 42 wrote on August 7 2009, 05:00 pm

two stars??

I've played it through several times and it seems fine to me :S

0 reply
slopit12 21 wrote on August 7 2009, 10:45 pm

It would sound fine, you have covered chords correctly. But its not the way its played. The verse is not power chords, its just octaves. The solo is not really right either, its a bit more complex than you've tabbed. I wouldn't say 2 stars, probably 3, but there are better tabs out there.

guest
You may want to rate the tab now too:
select rating
Wanna post a correction for this tab? Suggest correction