Oops, an error
Loading. Please wait.

Uprising Tab

by Muse
8,170 views 39 this week
no commentswrite comment
1 2 3 4 5
accurate
x 4
add to favorites
launch autoscroll
font size
0
reset
how to read this tab
guitar tuner
Tab Pro tools
  • play this tab
  • loop segment
  • change instrument
  • show fretboard
  • metronome
×
Best way to learn
"Uprising"
Autoscroll
slow
fast
+/-
esc
set tempo
stop
Contributor
**Guitar Part**

Bendy intro parts
E ||--10b-10b\----||
B ||--13b-13b\----||
G ||--------------||
D ||--------------||
A ||--------------||
D ||--------------||


Verse kicking in

E ||----------------------------------||
B ||----------------------------------||
G ||---7-7---7-7-7---7-7-7---7-7-7----||
D ||----------------------------------||
A ||---5-5---5-5-5---5-5-5---5-5-5----||
D ||----------------------------------||

Verse
E ||-------------------------------------|
B ||-------------------------------------|
G ||-7-7-7--x-7-7-7--x-7-7-7--x-7-7-7-7--|
D ||-------------------------------------|
A ||-5-5-5--x-5-5-5--x-5-5-5--x-5-5-5-5--|
D ||-------------------------------------|

E ||----------------------------------|
B ||----------------------------------|
G ||--7-7-7---7-7-7---7-5-5---5-5-5-5-|
D ||----------------------------------|
A ||--5-5-5---5-5-5---5-3-3---3-3-3-3-|
D ||----------------------------------|

E ||--------------------------------------|
B ||--------------------------------------|
G ||--5-6-6---6-6-6---6-6-6---6-6-6-6-----|
D ||--------------------------------------|
A ||--3-4-4---4-4-4---4-4-4---4-4-4-4-----|
D ||--------------------------------------|

E ||------------------------------------10b-10b\-|| x 2
B ||------------------------------------13b-13b\-||
G ||--6-7-7---7-7-7---7-7-7---7-7-7-7------------||
D ||---------------------------------------------||
A ||--4-5-5---5-5-5---5-5-5---5-5-5-5------------||
D ||---------------------------------------------||

2nd part of verse end on
E ||----------------------------------|x2
B ||----------------------------------|
G ||---7-7---7-7-7---7--7---7-7-7-----|
D ||----------------------------------|
A ||---5-5---5-5-5---5--5---5-5-5-----|
D ||----------------------------------|


Chorus:
E ||-------|-------|-------|---------|-------|---------|--------|
B ||-------|-------|-------|---------|-------|---------|--------|
G ||-7-7-7-|-7-7-7-|-7-7-7-|-7-7-7-7-|-7-----|---------|--------|
D ||-------|-------|-------|---------|---5-5-|-5-5-5-5-|-5-3-3--|
A ||-5-5-5-|-5-5-5-|-5-5-5-|-5-5-5-5-|-5-----|---------|--------|
D ||-------|-------|-------|---------|---5-5-|-5-5-5-5-|-5-3-3--|

E ||---------|-------|-------|-------|---------|-------|---------|
B ||---------|-------|-------|-------|---------|-------|---------|
G ||---------|---6-6-|-6-6-6-|-6-6-6-|-6-6-6-6-|-6-7-7-|-7-7-7-7-|
D ||-3-3-3-3-|-3-----|-------|-------|---------|-------|---------|
A ||---------|---4-4-|-4-4-4-|-4-4-4-|-4-4-4-4-|-4-5-5-|-5-5-5-5-|
D ||-3-3-3-3-|-3-----|-------|-------|---------|-------|---------|

E ||-------|-------||x2
B ||-------|-------||
G ||-7-----|---6-6-||
D ||---3-3-|-3-----||
A ||-5-----|---4-4-||
D ||---3-3-|-3-----||

End on:
E ||--10b-10b\-||
B ||--13b-13b\-||
G ||-----------||
D ||-----------||
A ||-----------||
D ||-----------||

solo
E ||-----------------------------------------------------------|x2
B ||-----------------------------------------------------------|
G ||-----------------------------------------------------------|
D ||-----------------------------------------------------------|
A ||---------------3h4h5------------------------3h4h5----------|
D ||--0--3---5h6h7-----------------0--3---5h6h7----------------|

E ||-------------------------------------------------------------------------10b----||x2
B ||-------------------------------------------------------------------------13b----||
G ||-14-14-13-14-12-14----14----14----14----14-----15-14-15-14--14-14-10/14---------||
D ||-------------------15----14----12----11-----------------------------------------||
A ||-------------------------------------------12--13-12-13-12--12-12-10/12---------||
D ||--------------------------------------------------------------------------------|| 

E ||-----------------------------------------------------------|x2
B ||-----------------------------------------------------------|
G ||-----------------------------------------------------------|
D ||-----------------------------------------------------------|
A ||---------------3h4h5------------------------3h4h5----------|
D ||--0--3---5h6h7-----------------0--3---5h6h7----------------|

E ||-------------------------------------------------------------------------10b-10b-10b-10b||
B ||-------------------------------------------------------------------------13b-13b-13b-13b||
G ||-14-14-13-14-12-14----14----14----14----14-----15-14-15-14--14-14-10/14-----------------||
D ||-------------------15----14----12----11-------------------------------------------------||
A ||-------------------------------------------12--13-12-13-12--12-12-10/12-----------------||
D ||----------------------------------------------------------------------------------------||

Play chorus Again :D

From Shuggy_r
comments
print report bad tab
I want to post or [tab]
guest
You may want to rate the tab now too:
select rating
Please do not post tabs as comments. Select "correction" instead!