Oops, an error
Loading. Please wait.

Who Knows Who Bass Tab

version 1
version 1

Whole song

Interactive

by Muse
1,175 views 1 this week
no commentswrite comment
1 2 3 4 5
3 more votes to show rating
add to favorites
launch autoscroll
font size
0
reset
guitar tuner
Autoscroll
slow
fast
+/-
esc
set tempo
stop
Help us to improve Ultimate-Guitar.com Take our survey!
×
Author
Difficulty
Tuning
novice
D A D G B E
Band: Muse and The Streets
Song: Who Knows Who
Album: Non Album track (2008)
Bassist: Chris Wolstenholme
Tuning: Dropped D

Intro:

G|--7-6-5------|
D|--------575--|
A|-----------8-|
D|-------------|

Verse:

G|7----------56|    |--7-6-5------|     |7----------56|
D|------5-67---|    |--------575--|     |------5-67---|
A|-5--8-----5--|    |-----------8-|     |-5--8-----5--|
D|-------------| x8 |-------------| and |-------------| x8

Chorus:

G|-------------|    |-------------|
D|-------------|    |-------------|
A|5------03034-|    |5\-----------|
D|-0-3-5-------| x8 |-------------|

Pre verse:

G|7------------|    |7----------56|  Last notes play
D|-------------|    |-------------|    very softly
A|-5-----------|    |--5----------| 
D|-------------| x3 |-------------|

Verse:

G|7----------56|
D|------5-67---|
A|-5--8-----5--|
D|-------------| x4

Chorus:

G|-------------|    |-------------|
D|-------------|    |-------------|
A|5------03034-|    |5------------|
D|-0-3-5-------| x8 |-0-----------| 

No bass till [2:52]. If You want You can play verse riff from 2:31 
Chorus:

G|-------------|    |-------------|
D|-------------|    |-------------|
A|5------03034-|    |5------------|
D|-0-3-5-------| x8 |-------------| 

Hope that You'll find this tab useful. Please rate and check out other
MUSE tabs tabbed by me.                                        

/  slide up
\  slide down
h  hammer-on
p  pull-off
~  let ring
Suggest correction
Give kudos to tab author, rate the tab!
1 2 3 4 5
comments
print report bad tab
guest
You may want to rate the tab now too:
select rating
Wanna post a correction for this tab? Suggest correction