Oops, an error
Loading. Please wait.

Yes Please Bass Tab

version 2
version 2

Whole song

Interactive

by Muse
3,928 views 3 this week
no commentswrite comment
1 2 3 4 5
x 5
add to favorites
launch autoscroll
font size
0
reset
guitar tuner
Autoscroll
slow
fast
+/-
esc
set tempo
stop
Help us to improve Ultimate-Guitar.com Take our survey!
×
Author
Difficulty
Tuning
novice
D A D G B E
Band: Muse
Song: Yes Please
Album: Hullabaloo (2002)
Bassist: Chris Wolstenholme
Tuning: Dropped D

Intro:

G|--------|--------|--------|--------|
D|--------|--------|--------|--------|
A|--------|--------|--------|--------|
D|00000000|55555555|33333333|33333333|

G|--------|--------|--------|--------|--------| after some  --------         
D|--------|--------|--------|--------|--------| while there --------
A|--------|--------|--------|--------|--------|  will be:   --------
D|00000000|55555555|33333333|3333334~|5\------|             -030-55-

Riff:

G|--------|--------|     |--------|
D|--------|--------|     |--------|
A|--------|--345---|     |--345---|
D|-----034|55---034|  +  |55---034| x14

Verse:

G|------------------------------------------------------------------------|
D|------345-----345-----345-----345-------------------------------------34|
A|--3455---01233---01233---01233---0123-----345-----345-----345-----3455--|
D|55-----------------------------------03455---03455---03455---03455------|

G|------------------------------------------------------------------------|
D|5-----345-----345-----345-----------------------------------------------|
A|-01233---01233---01233---0123-----345-----345-----345-----345-----------|
D|-----------------------------03455---03455---03455---03455---0-5-5-3~---|

G|-----------------|
D|-----------------|
A|-----------------|
D|5-5-3~---3030303~|

Chorus:

G|--------|--------|--------|--------|
D|--------|--------|--------|-------3|
A|--------|--------|--------|-333335-|
D|00000000|55555555|33333333|3-------| x3

G|--------|--------|--------|--------|    
D|--------|--------|--------|--------|
A|--------|--------|--------|--------|
D|00000000|55555555|3~------|---x4~--|

Riff:

G|--------|    
D|--------|    
A|--345---|    
D|55---034| x8

Verse:

G|------------------------------------------------------------------------|
D|------345-----345-----345-----345-------------------------------------34|
A|--3455---01233---01233---01233---0123-----345-----345-----345-----3455--|
D|55-----------------------------------03455---03455---03455---03455------|

G|------------------------------------------------------------------------|
D|5-----345-----345-----345-----------------------------------------------|
A|-01233---01233---01233---0123-----345-----345-----345-----345-----------|
D|-----------------------------03455---03455---03455---03455---0-5-5-3~---|

G|-----------------|
D|-----------------|
A|-----------------|
D|5-5-3~---3030303~|

Chorus:

G|--------|--------|--------|--------|
D|--------|--------|--------|-------3|
A|--------|--------|--------|-333335-|
D|00000000|55555555|33333333|3-------| x3

G|--------|--------|--------|--------|    
D|--------|--------|--------|--------|
A|--------|--------|--------|--------|
D|00000000|55555555|3~------|---x4~--|

Ending:

G|--------|    |--------|
D|--------|    |--------|
A|--345---|    |--------|
D|55---034| x8 |5~------|

Please rate and check out other MUSE tabs tabbed by me. 

/  slide up
\  slide down
h  hammer-on
p  pull-off
~  let ring
Suggest correction
comments
print report bad tab
guest
You may want to rate the tab now too:
select rating
Wanna post a correction for this tab? Suggest correction