Oops, an error
Loading. Please wait.

2Nd Thoughts Bass Tab

474 views 1 this week
no commentswrite comment
1 2 3 4 5
2 more votes to show rating
add to favorites
launch autoscroll
font size
0
reset
guitar tuner
Autoscroll
slow
fast
+/-
esc
set tempo
stop
Help us to improve Ultimate-Guitar.com Take our survey!
×
Band- Mushroomhead
Song- 2nd Thoughts

Intro
G:|------------------------|
D:|------------------------|
A:|------------------------|
E:|-0-----------0----------|

Verse 1
G:|-------------------------|
D:|-------------------------|
A:|-------------------------|
E:|-0-0-0-5-5-5-0-0-0-5-5-5-|

Verse 2
G:|---------------------|
D:|---------------------|
A:|---------------------|
E:|-0-0-0-2-2-5-5-5-2-2-|

verse 3
G:|----------------------------|
D:|----------------------------|
A:|----------------------------|
E:|-0-0-0--0-0-0-2-3-2-0r--12/-|

Outro/Verious Verses in the Song as well
G:|-------|
D:|-------|
A:|-------|
E:|-00-00-|
Suggest correction
Give kudos to tab author, rate the tab!
1 2 3 4 5
comments
print report bad tab
guest
You may want to rate the tab now too:
select rating
Wanna post a correction for this tab? Suggest correction