Oops, an error
Loading. Please wait.

Becoming Cold Tab

3,193 views 3 this week
no commentswrite comment
1 2 3 4 5
please rate
add to favorites
launch autoscroll
font size
0
reset
how to read this tab
guitar tuner
Autoscroll
slow
fast
+/-
esc
set tempo
stop
Help us to improve Ultimate-Guitar.com Take our survey!
×
Becoming Cold from Mushroomhead
Tuning: ADGCFAD(traditional Mushroomhead tuning)

Intro
G1      G2
------|----------|
------|----------|
------|----------|
------|-22-22-22-|
-33---|-21-21-21-|
-33---|-20-20-20-|
-11---|----------|

Verse(first part x8, 2nd part x2, first part x10, 2nd part x4)
------------|------------|
------------|------------|
------------|------------|
------------|------------|
-33-3-3-3-3-|-66-6-6-6-6-|
-33-3-3-3-3-|-66-6-6-6-6-|
-11-1-1-1-1-|-44-4-4-4-4-|

Chorus 1(first part x3, 2nd part x1)
----------------|-----------------|
----------------|-----------------|
----------------|-----------------|
------101010108-|------1313131310-|
-3-3--101010108-|-6-6--1313131310-|
-3-3--8-8-8-8-6-|-6-6--111111118--|
-1-1------------|-4-4-------------|

Chorus 2(first part x3, 2nd part X1)
-----------------------|-----------------------|
-----------------------|-----------------------|
-----------------------|-----------------------|
-----------------------|-----------------------|
--------0h10-0h10-0h10-|--------0h13-0h13-0h13-|
-333333-0h8--0h8--0h8--|-666666-0h11-0h11-0h11-|
-111111----------------|-444444----------------|
 ......                  ......
Interlude
---------------|
---------------|
---------------|
----4-3--------|
-33-4-3-6-6863-|
-33-2-1-6-6863-|
-11-----4-4641-|

Fill 1
-----------|
-----------|
-----------|
----4-3----|
-33-4-3-6~-|
-33-2-1-6~-|
-11-----4~-|

-play Intro
-play Verse
-play Chorus 1 and 2
-play Interlude(listen for order)

Outro 1(listen well for order)
-------------------------|
-------------------------|
-------------------------|
-------------------------|
------3------3/6----9868-|
-3333-3-3333-3/6-33-9868-|
-1111-1-1111-1/4-11-7646-|
 ....   ....     ..
Fill 2
-----------------------------|
-----------------------------|
-----------------------------|
-3----3----3----3----3---3---|
-3-33-3-33-3-33-3-33-3-3-3-3-|
-1-11-1-11-1-11-1-11-1-1-1-1-|
   ..   ..   ..   ..   .   .

-play Outro 1 more

Outro 2
---------------------------|
---------------------------|
---------------------------|
-10----8-------------------|
-10----8----8----6----6863-|
-8-----6----8----6----6863-|
----00---00-6-00-4-00-4641-|
    ..   ..   ..   ..
-play Fill 1
Suggest correction
Give kudos to tab author, rate the tab!
1 2 3 4 5
comments
print report bad tab
guest
You may want to rate the tab now too:
select rating
Please do not post tabs as comments. Select "correction" instead!