Oops, an error
Loading. Please wait.

Before I Die Tab

version 2
version 2

Whole song

Interactive

2,239 views 1 this week
no commentswrite comment
1 2 3 4 5
please rate
add to favorites
launch autoscroll
font size
0
reset
how to read this tab
guitar tuner
Autoscroll
slow
fast
+/-
esc
set tempo
stop
Help us to improve Ultimate-Guitar.com Take our survey!
×
Before I Die from Mushroomhead
Fixed by: 2fisted
Tuning: 7 string drop D AEADGBe (7 string not needed though)
Note: this song has been tabbed, but for the wrong tuning, so I simply altered the tab 
fit this tuning, and tweaked it a bit.

Intro (that's a 10, not a 1 and 0)
-----------------------------|
-----------------------------|
-----------------------------|
-----------------7-77777777--| X3
-----------------x-xxxxxxxx--|
------7-7-10-5-7-6-66666666--|
-7777-7-7-10-5-7-------------|
 ....      . . .   ........
Fill(pick the slide as you go down and back up slowly)
-----------------------|
-----------------------|
-----------------------|
-----------------------|
-----------------------|
------7-7-10-5-7-------|
-7777-7-7-10-5-7-9/4\9-|
 ....      . . . * * *
Verse = Intro (riff X16 instead of X3 like intro)

Fill 2
------------------|
------------------|
------------------|
--------------7---| X2
-7-----33---7-x---|
-7-10--33-5-7-6---|
---10-----5-------|

-verse (intro riff x3)
then:
------------------|
------------------|
------------------|
------------------|
------------------|
------7-7-10-5-7--|
-7777-7-7-10-5-7--|
 ....      . . .
-verse (riff X8)
-Fill 2

Interlude 1(again, 10's not 1's and 0's)
------------------------------|
------------------------------|
------------------------------|
------------------------------|
-5----10------5----7----6666--|X3
-5-55-10-1010-5-55-7-77-6666--|
---55----1010---55---77-------|
 . ..  .  . . . .. . .. ....
then:
------------------------------|
------------------------------|
------------------------------|
------------------------7777--|
-5----10------5----7----xxxx--|X4
-5-55-10-1010-5-55-7-77-6666--|
---55----1010---55---77-------|
 . ..  .  . . . .. . .. ....
Interlude 2
--------------------------------------|
--------------------------------------|
--------------------------------------|
------------------------77777-7-7-77--|X1
-5----10------5----7----xxxxx-x-x-xx--|
-5-55-10-1010-5-55-7-77-66666-6-6-66--|
---55----1010---55---77---------------|
 . ..  .  . . . .. . ..
then
---------------|
---------------|
---------------|
-77777-7-7-77--|X3 (slide out afterwards)
-xxxxx-x-x-xx--|
-66666-6-6-66--|
---------------|

Outro 1
-------------------------|
-------------------------|
-------------------------|
-----9------12-14--------|X4
-----x-------x--x-12-12--|
-777-7-1010-10-12--x--x--|
-777---1010-------13-13--|
 ...    . .
Outro 2
------------------------|
------------------------|
------------------------|
------------------7-77--|X4
-----7-------10-7-x-xx--|
-777-7-1010--10-7-6-66--|
-777---1010-------------|
 ... .  . .   . . .
End on:
-------------------|
-------------------|
-------------------|
----------------7--|
----------------x--|
------77-10-5-7-6--|
-7777-77-10-5-7----|
 .... ..  . . .
Suggest correction new What's this?
You can suggest a correction to this tab. Community and Mods will review your correction and vote to approve or reject it.
comments
We did not receive enough feedback on this tab! Please rate:
print report bad tab
1 2 3 4 5
guest
You may want to rate the tab now too:
select rating
Please do not post tabs as comments. Select "correction" instead!