Oops, an error
Loading. Please wait.

Bwomp Bass Tab

version 1
version 1

Whole song

Interactive

1,406 views 1 this week
no commentswrite comment
1 2 3 4 5
3 more votes to show rating
add to favorites
launch autoscroll
font size
0
reset
guitar tuner
Autoscroll
slow
fast
+/-
esc
set tempo
stop
Help us to improve Ultimate-Guitar.com Take our survey!
×
Band- Mushroomhead
Song- Bwomp

This is a rough version of Bwomp in D tuning. Prolly not perfect,
but a bit of a start.

(intro)x1
G---
D---
A---
D-0-* let ring

(verse)
G----------|----------------------------------|
D----------|----------------------------------|
A----------|----------------------------------|
D-1-00-012-|--0-0-0-0-0-0-0-0-0-0-0-0-0-0-0-0-|

(following verse)
G------------------------|
D------------------------|
A-6-5-6-5-7-5-6-5-6-5-7--|
D------------------------|

(breakdown)
G---------------------------|
D---------------------------|
A---------------------------|
D-4------7-----6------5-----|

(following breakdown)
G------------------------------------|
D------------------------------------|
A------------------------------------|
D-0-1-2-0-1-2-0-----3-----2-----1----|

(end)
G----------------|
D----------------|
A----------------|
D-1-00-1-00-1--0-|

Figure structure out for yourselves for now.
Suggest correction
Give kudos to tab author, rate the tab!
1 2 3 4 5
comments
print report bad tab
guest
You may want to rate the tab now too:
select rating
Wanna post a correction for this tab? Suggest correction