Oops, an error
Loading. Please wait.

Crazy Bass Tab

version 1
version 1

Whole song

1,753 views 1 this week
no commentswrite comment
1 2 3 4 5
x 3
add to favorites
launch autoscroll
font size
0
reset
guitar tuner
Autoscroll
slow
fast
+/-
esc
set tempo
stop
Help us to improve Ultimate-Guitar.com Take our survey!
×
Author
Difficulty
novice
Riff1

G:----------------------------------------------------|
D:----------------------------------------------------|
A:----------------------------------------------------|
E:--0-0----0-0-----3-3----3-3-----5-5---5-5---5-5--5-5|


Riff2
G:-------------------------------------------------------------|
D:-------------------------------------------------------------|
A:-------------------------------------------------------------|
E:-0-0-x-x-x-x-0-0-x-x-x-x-3-3-x-x-x-x-3-3-x-x-x-x-5-5-x-x-x-x-|


G:-----------------------------------|
D;-----------------------------------|
A:-----------------------------------|
E:5-5-x-x-x-x-5-5-x-x-x-x-5-5-x-x-x-x|


Riff3
G:-----------------------------------------------------------|
D:-----------------------------------------------------------|
A:-----------------------------------------------------------|
E:0-0-0-0-0-0-0-0-3-3-3-3-3-3-3-3-5-5-5-5-5-5-5-5-5-5-5-5-5-7|


Tis pretty much the whole song.

PLAY IT! ITS GOOD!
Suggest correction
Give kudos to tab author, rate the tab!
1 2 3 4 5
comments
print report bad tab
guest
You may want to rate the tab now too:
select rating
Wanna post a correction for this tab? Suggest correction