Oops, an error
Loading. Please wait.

Crazy Tab

version 2
version 2

Whole song

558 views 1 this week
no commentswrite comment
1 2 3 4 5
please rate
add to favorites
launch autoscroll
font size
0
reset
how to read this tab
guitar tuner
Autoscroll
slow
fast
+/-
esc
set tempo
stop
Help us to improve Ultimate-Guitar.com Take our survey!
×
Contributor
Difficulty
Tuning
novice
D G C F A D
Ok, gravy plays a 7 string I know, but I dont think he uses the 7th string in this song. 
is A sandard for 7 and D standard for 6.

Key
~  Let Ring
PM Palm Mute notes indicated by dots "."

---Intro---
Random muted X notes, then

D|-----------------|
A|-----------------|
F|-----------------|
C|4----7----9----9-|
G|4----7----9----9-|   strum the chords slowly
D|2----5----7----7-|
A|-----------------|


---Verse 1---

D|----------------|
A|----------------|
F|----------------|
C|4----7----9-----|
G|2----5----7-----|
D|----------------|
A|----------------| do this twice

D|----------------------------------------------|
A|----------------------------------------------|
F|----------------------------------------------|
C|4-4--44-4--77-7--77-7--99-9--99-9--99-9--99-9-|
G|4-4--44-4--77-7--77-7--99-9--99-9--99-9--99-9-|
D|2-2--22-2--55-5--55-5--77-7--77-7--77-7--77-7-|
A|----------------------------------------------|

D|---xxxx----xxxx----xxxx----xxxx----xxxx----xxxx----xxxx-----|
A|---xxxx----xxxx----xxxx----xxxx----xxxx----xxxx----xxxx-----|
F|---xxxx----xxxx----xxxx----xxxx----xxxx----xxxx----xxxx-----|
C|4-4xxxx-4-4xxxx-7-7xxxx-7-7xxxx-9-9xxxx-9-9xxxx-9-9xxxx-9-9-|
G|4-4xxxx-4-4xxxx-7-7xxxx-7-7xxxx-9-9xxxx-9-9xxxx-9-9xxxx-9-9-|
D|2-2xxxx-2-2xxxx-5-5xxxx-5-5xxxx-7-7xxxx-7-7xxxx-7-7xxxx-7-7-|
A|---xxxx----xxxx----xxxx----xxxx----xxxx----xxxx----xxxx-----|
The X's are just an Up down up down strum.
It also seems like a second guitar is in this part that does this.

D|----------------------------------------------------------------|
A|----------------------------------------------------------------|
F|----------------------------------------------------------------|
C|----------------ALL PALM MUTED----------------------------------|
G|----------------------------------------------------------------|
D|2222222222222222555555555555555577777777777777777777777777777777|
A|----------------------------------------------------------------|

---Chorus---

D|----------------------------------------|
A|----------------------------------------|
F|----------------------------------------|
C|4~---7~-------9-----9-----9-----9-------|
G|4~---7~-------9-----9-----9-----9-------|
D|2~---5~---77777-77777-77777-77777-------|   Do this whole thing twice
A|----------------------------------------|
PM          ....  ....  ....  ....
Not exactly sure it's four 7's because I'm picking too fast to tell X(

---Verse 2---------|
D|-----------------|
A|-----------------|
F|-----------------|
C|4----7----9------|
G|2----5----7------|
D|-----------------|
A|-----------------|  Do this once, then it breaks down, then do it again.

Pick slide in and
D|----------------------------------------------|
A|----------------------------------------------|
F|----------------------------------------------|
C|4-4--44-4--77-7--77-7--99-9--99-9--99-9--99-9-|
G|4-4--44-4--77-7--77-7--99-9--99-9--99-9--99-9-|
D|2-2--22-2--55-5--55-5--77-7--77-7--77-7--77-7-|
A|----------------------------------------------|

Second guitar Pick slides in
Guitar1
D|---xxxx----xxxx----xxxx----xxxx----xxxx----xxxx----xxxx-----|
A|---xxxx----xxxx----xxxx----xxxx----xxxx----xxxx----xxxx-----|
F|---xxxx----xxxx----xxxx----xxxx----xxxx----xxxx----xxxx-----|
C|4-4xxxx-4-4xxxx-7-7xxxx-7-7xxxx-9-9xxxx-9-9xxxx-9-9xxxx-9-9-|
G|4-4xxxx-4-4xxxx-7-7xxxx-7-7xxxx-9-9xxxx-9-9xxxx-9-9xxxx-9-9-|
D|2-2xxxx-2-2xxxx-5-5xxxx-5-5xxxx-7-7xxxx-7-7xxxx-7-7xxxx-7-7-|
A|---xxxx----xxxx----xxxx----xxxx----xxxx----xxxx----xxxx-----|
With
Guitar 2
D|----------------------------------------------------------------|
A|----------------------------------------------------------------|
F|----------------------------------------------------------------|
C|----------------ALL PALM MUTED----------------------------------|
G|----------------------------------------------------------------|
D|2222222222222222555555555555555577777777777777777777777777777777|
A|----------------------------------------------------------------|

---Chorus 2---

D|----------------------------------------|
A|----------------------------------------|
F|----------------------------------------|
C|4~---7~-------9-----9-----9-----9-------|
G|4~---7~-------9-----9-----9-----9-------|
D|2~---5~---77777-77777-77777-77777-------|   Do this whole thing twice
A|----------------------------------------|
PM          ....  ....  ....  ....

D|-----------------------------------------------|
A|-----------------------------------------------|
F|-----------------------------------------------|
C|4~---7~----9-9--99-9--99-9--99-9-------4~------|
G|4~---7~----9-9--99-9--99-9--99-9-------4~------|
D|2~---5~----7-7--77-7--77-7--77-7-------2~------|
A|-----------------------------------------------|Last Note-With Wah

---Interlude/breakdown/bridge/whatever---

Some Wah and other notes that I can't quite make out =/

D|-------------|
A|-------------|
F|-------------|
C|4~---7~---9~-|
G|4~---7~---9~-|
D|2~---5~---7~-|
A|-------------|

When J-Mann starts yelling

D|----------------------------------------------------------------|
A|----------------------------------------------------------------|
F|----------------------------------------------------------------|
C|----------------------------------------------------------------|
G|4444444444444444777777777777777799999999999999999999999999999999|
D|2222222222222222555555555555555577777777777777777777777777777777|
A|----------------------------------------------------------------|
That looks pretty bad, but that's it. Then...

D|----------------------------------------------------|
A|----------------------------------------------------|
F|----------------------------------------------------|
C|----------------------------------------------------|
G|444444444444444477777777777777779999999999999999~---|
D|222222222222222255555555555555557777777777777777~---|
A|----------------------------------------------------|


---Final Chorus---

I just do this, sounds pretty good, it's what the bass is doing.
D|----------------------------------------------|
A|----------------------------------------------|
F|----------------------------------------------|
C|4-4--44-4--77-7--77-7--99-9--99-9--99-9--99-9-|
G|4-4--44-4--77-7--77-7--99-9--99-9--99-9--99-9-|
D|2-2--22-2--55-5--55-5--77-7--77-7--77-7--77-7-|
A|----------------------------------------------| Reapeat as needed

---Outro---

D|---------------------------------------------|
A|---------------------------------------------|
F|---------------------------------------------|
C|4-4--44-4--44-4--44-4-33---------------------|
G|4-4--44-4--44-4--44-4-33---------------------|
D|2-2--22-2--22-2--22-2-11---------------------|
A|---------------------------------------------|
Reapeat as needed

Very Easy song, i hope I did an ok job tabbing it.
comments
We did not receive enough feedback on this tab! Please rate:
print report bad tab
1 2 3 4 5
I want to post or [tab]
guest
You may want to rate the tab now too:
select rating
Please do not post tabs as comments. Select "correction" instead!