Oops, an error
Loading. Please wait.

Destroying The World Around Me Bass Tab

581 views 3 this week
no commentswrite comment
1 2 3 4 5
please rate
add to favorites
launch autoscroll
font size
0
reset
guitar tuner
Autoscroll
slow
fast
+/-
esc
set tempo
stop
Help us to improve Ultimate-Guitar.com Take our survey!
×
Band- Mushroomhead
Song- Destroying The World Around me

Intro (00:30)
D|---------------------------------|
A|---------------------------------|
E|---------------------------------|
B|-0~--1-3-4---4-5-4---1-3-4---4-3-|

Verse1
D|---------|
A|---------|
E|---------|
B|-1-1-1-2-|

Chorus 		          (Play this every fourth time)
D|-------------------------|	  D|----------------|
A|-------------------------|	  A|----------------|
E|-------------------------|	  E|----------------|
B|-11121/0-21--2/1-2/1-2/1-|	  B|-11121-2-111313-|

Bridge1 (02:10)
D|--------------------------|
A|--------------------------|
E|--------------------------|
B|-4-3-2-1-0~----0~---00-0~-|

Verse2
D|---------------|
A|---------------|
E|---------------|
B|-1-3-4---4-5-3-|

Fill
D|-----|
A|-----|
E|-----|
B|-2-2-|

Bridge2
D|------------------|
A|------------------|
E|------------------|
B|-2-2---2-2---1-32-|

Solo (6:32)
D|---------------|
A|---------------|
E|---------------|
B|-11132-1132-10-|

Outro (07:46)
D|-------------------|
A|-------------------|
E|-------------------|
B|-00000111-00000000-|
Suggest correction
Give kudos to tab author, rate the tab!
1 2 3 4 5
comments
print report bad tab
guest
You may want to rate the tab now too:
select rating
Wanna post a correction for this tab? Suggest correction