Oops, an error
Loading. Please wait.

Dream Is Over Tab

version 3
version 3

Whole song

Interactive

127 views 1 this week
no commentswrite comment
1 2 3 4 5
please rate
add to favorites
launch autoscroll
font size
0
reset
how to read this tab
guitar tuner
Tab Pro tools
  • play this tab
  • loop segment
  • change instrument
  • show fretboard
  • metronome
×
Best way to learn
"Dream Is Over"
Autoscroll
slow
fast
+/-
esc
set tempo
stop
Contributor
Tabbed by: Hyks97@hotmail.com

Artist: Mushroomhead
Album: XIII
Song: The Dream Is Over


Tuning: A#/Bb Standard (Mushroomhead uses 7-strings, but its possible to play this song 
without the high E)



Main riff
Eb|----------------||
Bb|----------------||
Gb|----------------||
Db|----------------||
Ab|-3-3---3-3--x-x-||
Eb|-3-3---3-3--x-x-||
Bb|-1-1---1-1--x-x-||
      .

Verse
Eb|---------|-----------------------------|
Bb|---Only--|-----------------------------|
Gb|--Played-|-----------------------------|
Db|---Once--|-----------------------------|
Ab|---------|-----------------------------|
Eb|---------|-----------------------------|
Bb|-0-0-0-0-|-0-0-0-0---0-0-0-0-0-0-0-0---|
    . . . .   . . . .   . . . . . . . .


Chorus
Eb|-------------------------------|
Bb|-------------------------------|
Gb|-------------------------------|
Db|-------------------------------|
Ab|-------------------------8~~---|
Eb|-2-2-2-2-----2-2-2-2--2--6~~---|
Bb|-0-0-0-0-----0-0-0-0--0--6~~---|
    . . . .     . . . .  .

-Main riff
-Verse
-Chorus

Interlude
Eb|-------------------------------|
Bb|-------------------------------|
Gb|-------------------------------|
Db|-------------------------------|
Ab|--------5-------4-------3------| x4 (2 times palm muted, 2 times open)
Eb|-5-4-3--3--2-3--2--2-3--1--2-3-|
Bb|-3-2-1-----0-1-----0-1-----0-1-|
    . . .     . .     . .     . . 


-Main riff
-Verse
Chorus
-Main riff

And that's it
comments
We did not receive enough feedback on this tab! Please rate:
print report bad tab
1 2 3 4 5
I want to post or [tab]
guest
You may want to rate the tab now too:
select rating
Please do not post tabs as comments. Select "correction" instead!