Oops, an error
Loading. Please wait.

Fallen Tab

version 2
version 2

Whole song

383 views 1 this week
1 commentread comment
1 2 3 4 5
3 more votes to show rating
add to favorites
launch autoscroll
font size
0
reset
how to read this tab
guitar tuner
Autoscroll
slow
fast
+/-
esc
set tempo
stop
Help us to improve Ultimate-Guitar.com Take our survey!
×
The Fallen from Mushroomhead
Tuning:Bb standard(7 string)

Intro/Verse(hammer is fast, and sounds right)
---------------------|
---------------------|
---------------------|
---------------------|X3
---------------------|
-0h7-7-7-7-7-7-7-070-|
-0---0-0-0-0-0-0-000-|
     . . . . . . ...
Then play this once and repeat from start:
----------------------|
----------------------|
----------------------|
----------------------|
-----------5-----5----|
-75-75-5h7---5h7---75-|
----------------------|

Chorus Part 1
----------------------------------------------------|
----------------------------------------------------|
----------------------------------------------------|
----------------------------------------------------|
-2-----------------2-4-5-5--------------------------|
-2-222222222222222-2-4-5-5-555555555555-7-7-7-7p5---|
-0-000000000000000-0-2-3-3-333333333333-----------5-|
   ...............         ............
Chorus Part 2
-----------------------------------------------|
-----------------------------------------------|
-----------------------------------------------|
-9-9-------------------------------------------|
-9-9----2-2--------5-------5-5----7-7----------|
-7-7-xx-2-2-xx-5h7---7p5-0-5-5-xx-7-7-7p5-0-75-|
-----xx-0-0-xx-------------3-3-xx-5-5----------|

-Play Verse(shorter this time)
-Play Chorus 1 and Chorus 2

Interlude(x4)
----------|
----------|
----------|
----------|
-2~~------|
-2~~------|
-0~~------|

Outro
----------------------|
----------------------|
----------------------|
-9-9------------------|X2
-9-9----2-2-----------|
-7-7-xx-2-2-xx-x-x-x--|
-----xx-0-0-xx-x-x-x--|
Then this once:
----------------------|
----------------------|
----------------------|
-9-9------------------|
-9-9----2-2-----------|
-7-7-xx-2-2-xx-xxxxxx-|
-----xx-0-0-xx-xxxxxx-|
Then first line.
Suggest correction
Give kudos to tab author, rate the tab!
1 2 3 4 5
comments
print report bad tab
1 comment total.
0 reply
molecularcrowd7 59 Jun 18, 2015 04:16 AM

----------------------|
----------------------|
----------------------|
----------------------|
----------------------|
-75-75----7-----7-----|
------5h7---5h7----3-0|

it should be this

guest
You may want to rate the tab now too:
select rating
Wanna post a correction for this tab? Suggest correction