Oops, an error
Loading. Please wait.

Indifferent Tab

version 1
version 1

Whole song

483 views 1 this week
no commentswrite comment
1 2 3 4 5
3 more votes to show rating
add to favorites
launch autoscroll
font size
0
reset
how to read this tab
guitar tuner
Autoscroll
slow
fast
+/-
esc
set tempo
stop
Help us to improve Ultimate-Guitar.com Take our survey!
×
Band- Mushroomhead
Song- Indifferent

This song can be played in standard tuning EADGBE or can be played in
The standard D tuning here is the standard tunning first.

Sp- slide pick down strings.

E-------------------------------------------------------------------|
B-------------------------------------------------------------------|
G-------------------------------------------------------------------|
D-------------------------------------------------------------------|
A-----------------------------------sp------------------------------|
E-----------------------------------sp------------------------------|


E-----------------------------------------------------------------------|
B-----------------------------------------------------------------------|
G-----------------------------------------------------------------------|
D-----------------------------------------------------------------------|
A------9---9-9--9--7--7-7------7------5---5-5------5------4---4-4----4--|
E------7---7-7--7--5--5-5------5------3---3-3------3------2---2-2----2--|

E-----------------------------------------------------------------------|
B-----------------------------------------------------------------------|
G-----------------------------------------------------------------------|
D-----------------------------------------------------------------------|
A------4-------------5--------------7--------------------9--------------|
E-----------------------------------------------------------------------|

                Repeat 2-5x�s
E-------------------------------------------------------------------------------|
B-------------------------------------------------------------------------------|
G-------------------------------------------------------------------------------|
D-------------------------------------------------------------------------------|
A------9------------------7--------------5-----------4----------4�4------|
E------7------------------5--------------3-----------2----------2---2-----------|

E-----------------------------------------------------------------------|
B-----------------------------------------------------------------------|
G-----------------------------------------------------------------------|
D-----------------------------------------------------------------------|
A------4------5-5-------------------------4--------5-5------------------|
E------2------3-3-------------------------2--------3-3------------------|
Suggest correction
Give kudos to tab author, rate the tab!
1 2 3 4 5
comments
print report bad tab
guest
You may want to rate the tab now too:
select rating
Wanna post a correction for this tab? Suggest correction