Oops, an error
Loading. Please wait.

Kill Tomorrow Tab

version 4
version 4

Whole song

Interactive

2,338 views 1 this week
no commentswrite comment
1 2 3 4 5
please rate
add to favorites
launch autoscroll
font size
0
reset
how to read this tab
guitar tuner
Autoscroll
slow
fast
+/-
esc
set tempo
stop
Help us to improve Ultimate-Guitar.com Take our survey!
×
Contributor
Artist: Mushroomhead
Album: XIII
Song: Kill Tomorrow
Tuning:(7 string version) A,E,A,D,G,F#,e

Intro: [0:00]
[--------------------------------------------]
[--------------------------------------------]
[--------------------------------------------]
[--7---7---7---7-------7---7---7-------------]x4
[--7---7---7---7-------7---7---7---5-7-8-7-5-]
[--5-2-5-2-5-2-5-2-2---5-2-5-2-5-2-5-7-8-7-5-]
[----2---2---2---2-2-----2---2---2-5-7-8-7-5-]

Verse:[0:26]
[------]     [-----------]
[------]     [-----------]
[------]     [-----------]
[------]x29  [-----------]
[------]     [-5-7-8-7-5-]
[------]     [-5-7-8-7-5-]
[-2222-]     [-5-7-8-7-5-]
pm....

[--------]     [----]  [-----------]
[--------]     [----]  [-----------]
[--------]     [----]  [-----------]
[--------]x14  [----]  [-----------]
[--------]     [----]  [-5-7-8-7-5-]
[--------]     [----]  [-5-7-8-7-5-]
[-22-222-]     [-22-]  [-5-7-8-7-5-]
pm.. ...         ..


Chorus:[0:53]
[--------------------------]    [---]
[--------------------------]    [---]
[--------------------------]    [---]
[--------7 7 7-------------]x2  [---]
[--2-2-2-7-7-7-2-2-2-10-7-7]    [---]
[--2-2-2-5-5-5-2-2-2-10-7-7]    [-2-]
[--2-2-2-------2-2-2-10-7-7]    [-2-]

Fill:[1:25]
[----------]    [------]    [----------]
[----------]    [------]    [----------]
[----------]    [------]    [----------]
[----------]    [------]x13 [----------]
[-5-7-8-7-5]    [------]    [-5-7-8-7-5]
[-5-7-8-7-5]    [------]    [-5-7-8-7-5]
[-5-7-8-7-5]    [-2222-]    [-5-7-8-7-5]
pm.               ....

Verse:[1:33]
[--------------------------------------------]
[--------------------------------------------]
[--------------------------------------------]
[--7---7---7---7-------7---7---7-------------]x2
[--7---7---7---7-------7---7---7---5-7-8-7-5-]
[--5-2-5-2-5-2-5-2-2---5-2-5-2-5-2-5-7-8-7-5-]
[----2---2---2---2-2-----2---2---2-5-7-8-7-5-]

[------]     [-----------]
[------]     [-----------]
[------]     [-----------]
[------]x29  [-----------]
[------]     [-5-7-8-7-5-]
[------]     [-5-7-8-7-5-]
[-2222-]     [-5-7-8-7-5-]
pm....

[--------]     [----]  [-----------]
[--------]     [----]  [-----------]
[--------]     [----]  [-----------]
[--------]x14  [----]  [-----------]
[--------]     [----]  [-5-7-8-7-5-]
[--------]     [----]  [-5-7-8-7-5-]
[-22-222-]     [-22-]  [-5-7-8-7-5-]
pm.. ...         ..

Chorus:[0:53]
[--------------------------]    
[--------------------------]   
[--------------------------]    
[--------7 7 7-------------]x2  
[--2-2-2-7-7-7-2-2-2-10-7-7]    
[--2-2-2-5-5-5-2-2-2-10-7-7]    
[--2-2-2-------2-2-2-10-7-7]   

Bridge:[2:39]
[------------------------------------------]     [--------------------]
[------------------------------------------]     [--------------------]
[------------------------------------------]     [--------------------]
[------------------------------------------]x3   [--------------------]
[--8--7--11--10--2-2-2--8--7--11--10--2222-]     [-8--7--11--10—-2-2-2]
[--8--7--11--10--2-2-2--8--7--11--10--2222-]     [-8--7--11--10—-2-2-2]
[--8--7--11--10--2-2-2--8--7--11--10--2222-]     [-8--7--11--10--2-2-2]
pm.              . . .                ....                       . . .

Fill:[3:02]
[-------------------------------------------]
[-------------------------------------------]
[-------------------------------------------]
[--7---7---7---7------7---7---7-------------]x2
[--7---7---7---7------7---7---7---5-7-8-7-5-]
[--5-2-5-2-5-2-5-2----5-2-5-2-5-2-5-7-8-7-5-]
[----2---2---2---2------2---2---2-5-7-8-7-5-]

Outro:[3:16]
[------]     [-----------]
[------]     [-----------]
[------]     [-----------]
[------]x29  [-----------]
[------]     [-5-7-8-7-5-]
[------]     [-5-7-8-7-5-]
[-2222-]     [-5-7-8-7-5-]
pm....

[--------]     [----]  [-----------]
[--------]     [----]  [-----------]
[--------]     [----]  [-----------]
[--------]x14  [----]  [-----------]
[--------]     [----]  [-5-7-8-7-5-]
[--------]     [----]  [-5-7-8-7-5-]
[-22-222-]     [-22-]  [-5-7-8-7-5-]
pm.. ...         ..


(6 string version)
Tuning: A,E,A,D,G,B
Intro: [0:00]
[--------------------------------------------]
[--------------------------------------------]
[--7---7---7---7-------7---7---7-------------]x4
[--7---7---7---7-------7---7---7---5-7-8-7-5-]
[--5-2-5-2-5-2-5-2-2---5-2-5-2-5-2-5-7-8-7-5-]
[----2---2---2---2-2-----2---2---2-5-7-8-7-5-]

Verse:[0:26]
[------]     [-----------]
[------]     [-----------]
[------]x29  [-----------]
[------]     [-5-7-8-7-5-]
[------]     [-5-7-8-7-5-]
[-2222-]     [-5-7-8-7-5-]
pm....

[--------]     [----]  [-----------]
[--------]     [----]  [-----------]
[--------]x14  [----]  [-----------]
[--------]     [----]  [-5-7-8-7-5-]
[--------]     [----]  [-5-7-8-7-5-]
[-22-222-]     [-22-]  [-5-7-8-7-5-]
pm.. ...         ..


Chorus:[0:53]
[--------------------------]    [---]
[--------------------------]    [---]
[--------7 7 7-------------]x2  [---]
[--2-2-2-7-7-7-2-2-2-10-7-7]    [---]
[--2-2-2-5-5-5-2-2-2-10-7-7]    [-2-]
[--2-2-2-------2-2-2-10-7-7]    [-2-]

Fill:[1:25]
[----------]    [------]    [----------]
[----------]    [------]    [----------]
[----------]    [------]x13 [----------]
[-5-7-8-7-5]    [------]    [-5-7-8-7-5]
[-5-7-8-7-5]    [------]    [-5-7-8-7-5]
[-5-7-8-7-5]    [-2222-]    [-5-7-8-7-5]
pm.               ....

Verse:[1:33]
[--------------------------------------------]
[--------------------------------------------]
[--7---7---7---7-------7---7---7-------------]x2
[--7---7---7---7-------7---7---7---5-7-8-7-5-]
[--5-2-5-2-5-2-5-2-2---5-2-5-2-5-2-5-7-8-7-5-]
[----2---2---2---2-2-----2---2---2-5-7-8-7-5-]

[------]     [-----------]
[------]     [-----------]
[------]x29  [-----------]
[------]     [-5-7-8-7-5-]
[------]     [-5-7-8-7-5-]
[-2222-]     [-5-7-8-7-5-]
pm....

[--------]     [----]  [-----------]
[--------]     [----]  [-----------]
[--------]x14  [----]  [-----------]
[--------]     [----]  [-5-7-8-7-5-]
[--------]     [----]  [-5-7-8-7-5-]
[-22-222-]     [-22-]  [-5-7-8-7-5-]
pm.. ...         ..

Chorus:[0:53]    
[--------------------------]   
[--------------------------]    
[--------7 7 7-------------]x2  
[--2-2-2-7-7-7-2-2-2-10-7-7]    
[--2-2-2-5-5-5-2-2-2-10-7-7]    
[--2-2-2-------2-2-2-10-7-7]   

Bridge:[2:39]
[------------------------------------------]     [--------------------]
[------------------------------------------]     [--------------------]
[------------------------------------------]x3   [--------------------]
[--8--7--11--10--2-2-2--8--7--11--10--2222-]     [-8--7--11--10—-2-2-2]
[--8--7--11--10--2-2-2--8--7--11--10--2222-]     [-8--7--11--10—-2-2-2]
[--8--7--11--10--2-2-2--8--7--11--10--2222-]     [-8--7--11--10--2-2-2]
pm.              . . .                ....                       . . .

Fill:[3:02]
[-------------------------------------------]
[-------------------------------------------]
[--7---7---7---7------7---7---7-------------]x2
[--7---7---7---7------7---7---7---5-7-8-7-5-]
[--5-2-5-2-5-2-5-2----5-2-5-2-5-2-5-7-8-7-5-]
[----2---2---2---2------2---2---2-5-7-8-7-5-]

Outro:[3:16]
[------]     [-----------]
[------]     [-----------]
[------]x29  [-----------]
[------]     [-5-7-8-7-5-]
[------]     [-5-7-8-7-5-]
[-2222-]     [-5-7-8-7-5-]
pm....

[--------]     [----]  [-----------]
[--------]     [----]  [-----------]
[--------]x14  [----]  [-----------]
[--------]     [----]  [-5-7-8-7-5-]
[--------]     [----]  [-5-7-8-7-5-]
[-22-222-]     [-22-]  [-5-7-8-7-5-]
pm.. ...         ..

Please rate this.
comments
We did not receive enough feedback on this tab! Please rate:
print report bad tab
1 2 3 4 5
I want to post or [tab]
guest
You may want to rate the tab now too:
select rating
Please do not post tabs as comments. Select "correction" instead!